ISO-10303-21;
HEADER;
/* Generated by software containing ST-Developer
 * from STEP Tools, Inc. (www.steptools.com) 
 */
/* OPTION: strings as raw bytes, not using required /X/ escapes */

FILE_DESCRIPTION(
/* description */ ('Unknown'),
/* implementation_level */ '2;1');

FILE_NAME(
/* name */ '48461000_KAPPE_DEKO_DECORATIVE_100303983',
/* time_stamp */ '2023-07-31T13:20:04+02:00',
/* author */ ('Unknown'),
/* organization */ ('GROHE AG'),
/* preprocessor_version */ 'ST-DEVELOPER v16.7',
/* originating_system */ 'DEX',
/* authorisation */ $);

FILE_SCHEMA (('AUTOMOTIVE_DESIGN {1 0 10303 214 3 1 1}'));
ENDSEC;

DATA;
#10=PROPERTY_DEFINITION_REPRESENTATION(#14,#12);
#11=PROPERTY_DEFINITION_REPRESENTATION(#15,#13);
#12=REPRESENTATION('',(#16),#251);
#13=REPRESENTATION('',(#17),#251);
#14=PROPERTY_DEFINITION('pmi validation property','',#262);
#15=PROPERTY_DEFINITION('pmi validation property','',#262);
#16=VALUE_REPRESENTATION_ITEM('number of annotations',COUNT_MEASURE(0.));
#17=VALUE_REPRESENTATION_ITEM('number of views',COUNT_MEASURE(0.));
#18=CONTEXT_DEPENDENT_SHAPE_REPRESENTATION(#24,#265);
#19=CONTEXT_DEPENDENT_SHAPE_REPRESENTATION(#25,#267);
#20=CONTEXT_DEPENDENT_SHAPE_REPRESENTATION(#26,#268);
#21=NEXT_ASSEMBLY_USAGE_OCCURRENCE('412700031_AUFNAHME_SEAT_100078163',
'412700031_AUFNAHME_SEAT_100078163','412700031_AUFNAHME_SEAT_100078163',
#270,#271,'');
#22=NEXT_ASSEMBLY_USAGE_OCCURRENCE('413205BM2_KAPPE_CAP_100086129',
'413205BM2_KAPPE_CAP_100086129','413205BM2_KAPPE_CAP_100086129',#270,#272,
'');
#23=NEXT_ASSEMBLY_USAGE_OCCURRENCE('413206BM3_AUFNAHME_SEAT_100086142',
'413206BM3_AUFNAHME_SEAT_100086142','413206BM3_AUFNAHME_SEAT_100086142',
#269,#270,'');
#24=(
REPRESENTATION_RELATIONSHIP(' ',' ',#150,#151)
REPRESENTATION_RELATIONSHIP_WITH_TRANSFORMATION(#27)
SHAPE_REPRESENTATION_RELATIONSHIP()
);
#25=(
REPRESENTATION_RELATIONSHIP(' ',' ',#152,#151)
REPRESENTATION_RELATIONSHIP_WITH_TRANSFORMATION(#28)
SHAPE_REPRESENTATION_RELATIONSHIP()
);
#26=(
REPRESENTATION_RELATIONSHIP(' ',' ',#151,#153)
REPRESENTATION_RELATIONSHIP_WITH_TRANSFORMATION(#29)
SHAPE_REPRESENTATION_RELATIONSHIP()
);
#27=ITEM_DEFINED_TRANSFORMATION(' ',' ',#154,#166);
#28=ITEM_DEFINED_TRANSFORMATION(' ',' ',#154,#174);
#29=ITEM_DEFINED_TRANSFORMATION(' ',' ',#154,#175);
#30=SHAPE_REPRESENTATION_RELATIONSHIP('','',#150,#32);
#31=SHAPE_REPRESENTATION_RELATIONSHIP('','',#152,#33);
#32=ADVANCED_BREP_SHAPE_REPRESENTATION('',(#144),#253);
#33=ADVANCED_BREP_SHAPE_REPRESENTATION('',(#145),#254);
#34=CONICAL_SURFACE('',#163,20.4,0.785398163397451);
#35=CONICAL_SURFACE('',#173,22.1,0.785398163397445);
#36=CYLINDRICAL_SURFACE('',#158,18.5);
#37=CYLINDRICAL_SURFACE('',#165,20.7);
#38=CYLINDRICAL_SURFACE('',#169,22.1);
#39=ORIENTED_EDGE('',*,*,#55,.T.);
#40=ORIENTED_EDGE('',*,*,#56,.F.);
#41=ORIENTED_EDGE('',*,*,#57,.T.);
#42=ORIENTED_EDGE('',*,*,#55,.F.);
#43=ORIENTED_EDGE('',*,*,#57,.F.);
#44=ORIENTED_EDGE('',*,*,#58,.T.);
#45=ORIENTED_EDGE('',*,*,#59,.F.);
#46=ORIENTED_EDGE('',*,*,#58,.F.);
#47=ORIENTED_EDGE('',*,*,#59,.T.);
#48=ORIENTED_EDGE('',*,*,#56,.T.);
#49=ORIENTED_EDGE('',*,*,#60,.T.);
#50=ORIENTED_EDGE('',*,*,#61,.T.);
#51=ORIENTED_EDGE('',*,*,#62,.T.);
#52=ORIENTED_EDGE('',*,*,#62,.F.);
#53=ORIENTED_EDGE('',*,*,#60,.F.);
#54=ORIENTED_EDGE('',*,*,#61,.F.);
#55=EDGE_CURVE('',#63,#63,#71,.T.);
#56=EDGE_CURVE('',#64,#64,#72,.T.);
#57=EDGE_CURVE('',#65,#65,#73,.T.);
#58=EDGE_CURVE('',#66,#66,#74,.T.);
#59=EDGE_CURVE('',#67,#67,#75,.F.);
#60=EDGE_CURVE('',#68,#68,#76,.T.);
#61=EDGE_CURVE('',#69,#69,#77,.F.);
#62=EDGE_CURVE('',#70,#70,#78,.F.);
#63=VERTEX_POINT('',#223);
#64=VERTEX_POINT('',#225);
#65=VERTEX_POINT('',#228);
#66=VERTEX_POINT('',#232);
#67=VERTEX_POINT('',#235);
#68=VERTEX_POINT('',#240);
#69=VERTEX_POINT('',#243);
#70=VERTEX_POINT('',#245);
#71=CIRCLE('',#156,18.5);
#72=CIRCLE('',#157,20.7);
#73=CIRCLE('',#159,18.5);
#74=CIRCLE('',#162,20.4);
#75=CIRCLE('',#164,20.7);
#76=CIRCLE('',#168,21.6);
#77=CIRCLE('',#170,22.1);
#78=CIRCLE('',#171,22.1);
#79=EDGE_LOOP('',(#39));
#80=EDGE_LOOP('',(#40));
#81=EDGE_LOOP('',(#41));
#82=EDGE_LOOP('',(#42));
#83=EDGE_LOOP('',(#43));
#84=EDGE_LOOP('',(#44));
#85=EDGE_LOOP('',(#45));
#86=EDGE_LOOP('',(#46));
#87=EDGE_LOOP('',(#47));
#88=EDGE_LOOP('',(#48));
#89=EDGE_LOOP('',(#49));
#90=EDGE_LOOP('',(#50));
#91=EDGE_LOOP('',(#51));
#92=EDGE_LOOP('',(#52));
#93=EDGE_LOOP('',(#53));
#94=EDGE_LOOP('',(#54));
#95=FACE_BOUND('',#79,.T.);
#96=FACE_BOUND('',#80,.T.);
#97=FACE_BOUND('',#81,.T.);
#98=FACE_BOUND('',#82,.T.);
#99=FACE_BOUND('',#83,.T.);
#100=FACE_BOUND('',#84,.T.);
#101=FACE_BOUND('',#85,.T.);
#102=FACE_BOUND('',#86,.T.);
#103=FACE_BOUND('',#87,.T.);
#104=FACE_BOUND('',#88,.T.);
#105=FACE_BOUND('',#89,.T.);
#106=FACE_BOUND('',#90,.T.);
#107=FACE_BOUND('',#91,.T.);
#108=FACE_BOUND('',#92,.T.);
#109=FACE_BOUND('',#93,.T.);
#110=FACE_BOUND('',#94,.T.);
#111=PLANE('',#155);
#112=PLANE('',#160);
#113=PLANE('',#161);
#114=PLANE('',#167);
#115=PLANE('',#172);
#116=ADVANCED_FACE('',(#95,#96),#111,.T.);
#117=ADVANCED_FACE('',(#97,#98),#36,.F.);
#118=ADVANCED_FACE('',(#99),#112,.F.);
#119=ADVANCED_FACE('',(#100),#113,.T.);
#120=ADVANCED_FACE('',(#101,#102),#34,.T.);
#121=ADVANCED_FACE('',(#103,#104),#37,.T.);
#122=ADVANCED_FACE('',(#105),#114,.T.);
#123=ADVANCED_FACE('',(#106,#107),#38,.T.);
#124=ADVANCED_FACE('',(#108),#115,.T.);
#125=ADVANCED_FACE('',(#109,#110),#35,.T.);
#126=CLOSED_SHELL('',(#116,#117,#118,#119,#120,#121));
#127=CLOSED_SHELL('',(#122,#123,#124,#125));
#128=STYLED_ITEM('',(#130),#144);
#129=STYLED_ITEM('',(#131),#145);
#130=PRESENTATION_STYLE_ASSIGNMENT((#132));
#131=PRESENTATION_STYLE_ASSIGNMENT((#133));
#132=SURFACE_STYLE_USAGE(.BOTH.,#134);
#133=SURFACE_STYLE_USAGE(.BOTH.,#135);
#134=SURFACE_SIDE_STYLE('',(#136));
#135=SURFACE_SIDE_STYLE('',(#137));
#136=SURFACE_STYLE_FILL_AREA(#138);
#137=SURFACE_STYLE_FILL_AREA(#139);
#138=FILL_AREA_STYLE('',(#140));
#139=FILL_AREA_STYLE('',(#141));
#140=FILL_AREA_STYLE_COLOUR('',#142);
#141=FILL_AREA_STYLE_COLOUR('',#143);
#142=COLOUR_RGB('',0.800000011920929,0.666434764862061,0.319999992847443);
#143=COLOUR_RGB('',0.819607853889465,0.819607853889465,0.819607853889465);
#144=MANIFOLD_SOLID_BREP('',#126);
#145=MANIFOLD_SOLID_BREP('',#127);
#146=SHAPE_DEFINITION_REPRESENTATION(#264,#150);
#147=SHAPE_DEFINITION_REPRESENTATION(#263,#151);
#148=SHAPE_DEFINITION_REPRESENTATION(#266,#152);
#149=SHAPE_DEFINITION_REPRESENTATION(#262,#153);
#150=SHAPE_REPRESENTATION('412700031_AUFNAHME_SEAT_100078163',(#154),#253);
#151=SHAPE_REPRESENTATION('413206BM3_AUFNAHME_SEAT_100086142',(#154,#166,
#174),#252);
#152=SHAPE_REPRESENTATION('413205BM2_KAPPE_CAP_100086129',(#154),#254);
#153=SHAPE_REPRESENTATION('48461000_KAPPE_DEKO_DECORATIVE_100303983',(#154,
#175),#251);
#154=AXIS2_PLACEMENT_3D('',#220,#176,#177);
#155=AXIS2_PLACEMENT_3D('',#221,#178,#179);
#156=AXIS2_PLACEMENT_3D('',#222,#180,#181);
#157=AXIS2_PLACEMENT_3D('',#224,#182,#183);
#158=AXIS2_PLACEMENT_3D('',#226,#184,#185);
#159=AXIS2_PLACEMENT_3D('',#227,#186,#187);
#160=AXIS2_PLACEMENT_3D('',#229,#188,#189);
#161=AXIS2_PLACEMENT_3D('',#230,#190,#191);
#162=AXIS2_PLACEMENT_3D('',#231,#192,#193);
#163=AXIS2_PLACEMENT_3D('',#233,#194,#195);
#164=AXIS2_PLACEMENT_3D('',#234,#196,#197);
#165=AXIS2_PLACEMENT_3D('',#236,#198,#199);
#166=AXIS2_PLACEMENT_3D('',#237,#200,#201);
#167=AXIS2_PLACEMENT_3D('',#238,#202,#203);
#168=AXIS2_PLACEMENT_3D('',#239,#204,#205);
#169=AXIS2_PLACEMENT_3D('',#241,#206,#207);
#170=AXIS2_PLACEMENT_3D('',#242,#208,#209);
#171=AXIS2_PLACEMENT_3D('',#244,#210,#211);
#172=AXIS2_PLACEMENT_3D('',#246,#212,#213);
#173=AXIS2_PLACEMENT_3D('',#247,#214,#215);
#174=AXIS2_PLACEMENT_3D('',#248,#216,#217);
#175=AXIS2_PLACEMENT_3D('',#249,#218,#219);
#176=DIRECTION('',(0.,0.,1.));
#177=DIRECTION('',(1.,0.,0.));
#178=DIRECTION('',(6.12303176911189E-17,1.,0.));
#179=DIRECTION('',(-1.,6.12303176911189E-17,0.));
#180=DIRECTION('',(-6.12303176911189E-17,-1.,0.));
#181=DIRECTION('',(-1.,6.12303176911189E-17,0.));
#182=DIRECTION('',(-6.12303176911189E-17,-1.,0.));
#183=DIRECTION('',(1.,-6.12303176911189E-17,0.));
#184=DIRECTION('',(6.12303176911189E-17,1.,0.));
#185=DIRECTION('',(-1.,6.12303176911189E-17,0.));
#186=DIRECTION('',(-6.12303176911189E-17,-1.,0.));
#187=DIRECTION('',(-1.,6.12303176911189E-17,0.));
#188=DIRECTION('',(-6.12303176911189E-17,-1.,0.));
#189=DIRECTION('',(1.,-6.12303176911189E-17,0.));
#190=DIRECTION('',(-6.12303176911189E-17,-1.,0.));
#191=DIRECTION('',(1.,-6.12303176911189E-17,0.));
#192=DIRECTION('',(-6.12303176911189E-17,-1.,0.));
#193=DIRECTION('',(1.,-6.12303176911189E-17,0.));
#194=DIRECTION('',(6.12303176911189E-17,1.,0.));
#195=DIRECTION('',(-1.,6.12303176911189E-17,0.));
#196=DIRECTION('',(-6.12303176911189E-17,-1.,0.));
#197=DIRECTION('',(1.,-6.12303176911189E-17,0.));
#198=DIRECTION('',(-6.12303176911189E-17,-1.,0.));
#199=DIRECTION('',(1.,-6.12303176911189E-17,0.));
#200=DIRECTION('',(1.37905576692359E-15,-1.66533453693774E-16,-1.));
#201=DIRECTION('',(1.39471859013714E-16,1.,-1.66533453693774E-16));
#202=DIRECTION('',(0.,0.,1.));
#203=DIRECTION('',(1.,0.,0.));
#204=DIRECTION('',(0.,0.,1.));
#205=DIRECTION('',(1.,0.,0.));
#206=DIRECTION('',(6.12323399573677E-17,0.,-1.));
#207=DIRECTION('',(-1.,0.,2.83276944882399E-16));
#208=DIRECTION('',(-6.12323399665688E-17,0.,1.));
#209=DIRECTION('',(1.,0.,6.12323399665688E-17));
#210=DIRECTION('',(6.12323399573677E-17,0.,-1.));
#211=DIRECTION('',(-1.,0.,-6.12323399573677E-17));
#212=DIRECTION('',(6.12323399573677E-17,0.,-1.));
#213=DIRECTION('',(-1.,0.,-6.12323399573677E-17));
#214=DIRECTION('',(6.12323399665688E-17,0.,-1.));
#215=DIRECTION('',(-1.,0.,-6.12323399665688E-17));
#216=DIRECTION('',(1.,3.49433275961833E-17,1.39352505229562E-15));
#217=DIRECTION('',(-1.39352505229562E-15,-1.1737359874829E-16,1.));
#218=DIRECTION('',(2.19269047363468E-15,5.78029533497538E-17,-1.));
#219=DIRECTION('',(1.,-1.67177942471265E-16,2.19269047363468E-15));
#220=CARTESIAN_POINT('',(0.,0.,0.));
#221=CARTESIAN_POINT('',(0.,0.,17.5));
#222=CARTESIAN_POINT('',(0.,0.,0.));
#223=CARTESIAN_POINT('',(-18.5,1.1327608772857E-15,0.));
#224=CARTESIAN_POINT('',(0.,0.,0.));
#225=CARTESIAN_POINT('',(20.7,-1.26746757620616E-15,0.));
#226=CARTESIAN_POINT('',(-3.06151588455594E-17,-0.5,0.));
#227=CARTESIAN_POINT('',(-3.06151588455594E-17,-0.5,0.));
#228=CARTESIAN_POINT('',(-18.5,-0.499999999999999,0.));
#229=CARTESIAN_POINT('',(-3.06151588455594E-17,-0.5,0.));
#230=CARTESIAN_POINT('',(-2.44921270764475E-16,-4.,20.7));
#231=CARTESIAN_POINT('',(-2.44921270764475E-16,-4.,0.));
#232=CARTESIAN_POINT('',(20.4,-4.,0.));
#233=CARTESIAN_POINT('',(-2.44921270764475E-16,-4.,0.));
#234=CARTESIAN_POINT('',(-2.2655217545714E-16,-3.7,0.));
#235=CARTESIAN_POINT('',(20.7,-3.7,0.));
#236=CARTESIAN_POINT('',(0.,0.,0.));
#237=CARTESIAN_POINT('',(24.2838636856079,9.56753304439273E-11,-7.81394936196466E-11));
#238=CARTESIAN_POINT('',(20.7773595716308,-8.25354657805549,27.2825091381836));
#239=CARTESIAN_POINT('',(-7.81735174061367E-11,-9.56756228465139E-11,27.2825091381836));
#240=CARTESIAN_POINT('',(21.5999999999218,-9.56756228465139E-11,27.2825091381836));
#241=CARTESIAN_POINT('',(-7.81735787214188E-11,-9.56756228465139E-11,28.283863685608));
#242=CARTESIAN_POINT('',(-7.81734867899667E-11,-9.56756228465139E-11,26.7825091381836));
#243=CARTESIAN_POINT('',(22.0999999999218,-9.56756228465139E-11,26.7825091381836));
#244=CARTESIAN_POINT('',(-7.8173333792059E-11,-9.56756228465139E-11,24.2838636856079));
#245=CARTESIAN_POINT('',(-22.1000000000782,-9.56756228465139E-11,24.2838636856079));
#246=CARTESIAN_POINT('',(-7.81735787214188E-11,-9.56756228465139E-11,24.2838636856079));
#247=CARTESIAN_POINT('',(-7.81734867899667E-11,-9.56756228465139E-11,26.7825091381836));
#248=CARTESIAN_POINT('',(5.81767395833618E-15,-1.06842321362355E-15,-1.38777878078145E-14));
#249=CARTESIAN_POINT('',(-51.7417832432557,-5.33667480652247E-15,51.7417832432557));
#250=MECHANICAL_DESIGN_GEOMETRIC_PRESENTATION_REPRESENTATION('',(#128,#129),
#251);
#251=(
GEOMETRIC_REPRESENTATION_CONTEXT(3)
GLOBAL_UNCERTAINTY_ASSIGNED_CONTEXT((#255))
GLOBAL_UNIT_ASSIGNED_CONTEXT((#261,#260,#259))
REPRESENTATION_CONTEXT('48461000_KAPPE_DEKO_DECORATIVE_100303983',
'TOP_LEVEL_ASSEMBLY_PART')
);
#252=(
GEOMETRIC_REPRESENTATION_CONTEXT(3)
GLOBAL_UNCERTAINTY_ASSIGNED_CONTEXT((#256))
GLOBAL_UNIT_ASSIGNED_CONTEXT((#261,#260,#259))
REPRESENTATION_CONTEXT('413206BM3_AUFNAHME_SEAT_100086142',
'COMPONENT_PART')
);
#253=(
GEOMETRIC_REPRESENTATION_CONTEXT(3)
GLOBAL_UNCERTAINTY_ASSIGNED_CONTEXT((#257))
GLOBAL_UNIT_ASSIGNED_CONTEXT((#261,#260,#259))
REPRESENTATION_CONTEXT('412700031_AUFNAHME_SEAT_100078163',
'COMPONENT_PART')
);
#254=(
GEOMETRIC_REPRESENTATION_CONTEXT(3)
GLOBAL_UNCERTAINTY_ASSIGNED_CONTEXT((#258))
GLOBAL_UNIT_ASSIGNED_CONTEXT((#261,#260,#259))
REPRESENTATION_CONTEXT('413205BM2_KAPPE_CAP_100086129','COMPONENT_PART')
);
#255=UNCERTAINTY_MEASURE_WITH_UNIT(LENGTH_MEASURE(0.005),#261,
'DISTANCE_ACCURACY_VALUE','Maximum Tolerance applied to model');
#256=UNCERTAINTY_MEASURE_WITH_UNIT(LENGTH_MEASURE(0.005),#261,
'DISTANCE_ACCURACY_VALUE','Maximum Tolerance applied to model');
#257=UNCERTAINTY_MEASURE_WITH_UNIT(LENGTH_MEASURE(0.005),#261,
'DISTANCE_ACCURACY_VALUE','Maximum Tolerance applied to model');
#258=UNCERTAINTY_MEASURE_WITH_UNIT(LENGTH_MEASURE(0.005),#261,
'DISTANCE_ACCURACY_VALUE','Maximum Tolerance applied to model');
#259=(
NAMED_UNIT(*)
SI_UNIT($,.STERADIAN.)
SOLID_ANGLE_UNIT()
);
#260=(
NAMED_UNIT(*)
PLANE_ANGLE_UNIT()
SI_UNIT($,.RADIAN.)
);
#261=(
LENGTH_UNIT()
NAMED_UNIT(*)
SI_UNIT(.MILLI.,.METRE.)
);
#262=PRODUCT_DEFINITION_SHAPE('','',#269);
#263=PRODUCT_DEFINITION_SHAPE('','',#270);
#264=PRODUCT_DEFINITION_SHAPE('','',#271);
#265=PRODUCT_DEFINITION_SHAPE(' ','NAUO PRDDFN',#21);
#266=PRODUCT_DEFINITION_SHAPE('','',#272);
#267=PRODUCT_DEFINITION_SHAPE(' ','NAUO PRDDFN',#22);
#268=PRODUCT_DEFINITION_SHAPE(' ','NAUO PRDDFN',#23);
#269=PRODUCT_DEFINITION('','',#277,#273);
#270=PRODUCT_DEFINITION('','',#278,#274);
#271=PRODUCT_DEFINITION('','',#279,#275);
#272=PRODUCT_DEFINITION('','',#280,#276);
#273=PRODUCT_DEFINITION_CONTEXT('',#298,'design');
#274=PRODUCT_DEFINITION_CONTEXT('',#298,'design');
#275=PRODUCT_DEFINITION_CONTEXT('',#298,'design');
#276=PRODUCT_DEFINITION_CONTEXT('',#298,'design');
#277=PRODUCT_DEFINITION_FORMATION_WITH_SPECIFIED_SOURCE('','',#285,
 .NOT_KNOWN.);
#278=PRODUCT_DEFINITION_FORMATION_WITH_SPECIFIED_SOURCE('','',#286,
 .NOT_KNOWN.);
#279=PRODUCT_DEFINITION_FORMATION_WITH_SPECIFIED_SOURCE('','',#287,
 .NOT_KNOWN.);
#280=PRODUCT_DEFINITION_FORMATION_WITH_SPECIFIED_SOURCE('','',#288,
 .NOT_KNOWN.);
#281=PRODUCT_RELATED_PRODUCT_CATEGORY('','',(#285));
#282=PRODUCT_RELATED_PRODUCT_CATEGORY('','',(#286));
#283=PRODUCT_RELATED_PRODUCT_CATEGORY('','',(#287));
#284=PRODUCT_RELATED_PRODUCT_CATEGORY('','',(#288));
#285=PRODUCT('48461000_KAPPE_DEKO_DECORATIVE_100303983',
'48461000_KAPPE_DEKO_DECORATIVE_100303983',
'48461000_KAPPE_DEKO_DECORATIVE_100303983',(#293));
#286=PRODUCT('413206BM3_AUFNAHME_SEAT_100086142',
'413206BM3_AUFNAHME_SEAT_100086142','413206BM3_AUFNAHME_SEAT_100086142',
(#294));
#287=PRODUCT('412700031_AUFNAHME_SEAT_100078163',
'412700031_AUFNAHME_SEAT_100078163','412700031_AUFNAHME_SEAT_100078163',
(#295));
#288=PRODUCT('413205BM2_KAPPE_CAP_100086129',
'413205BM2_KAPPE_CAP_100086129','413205BM2_KAPPE_CAP_100086129',(#296));
#289=PRODUCT_CATEGORY('','');
#290=PRODUCT_CATEGORY('','');
#291=PRODUCT_CATEGORY('','');
#292=PRODUCT_CATEGORY('','');
#293=PRODUCT_CONTEXT('',#298,'mechanical');
#294=PRODUCT_CONTEXT('',#298,'mechanical');
#295=PRODUCT_CONTEXT('',#298,'mechanical');
#296=PRODUCT_CONTEXT('',#298,'mechanical');
#297=APPLICATION_PROTOCOL_DEFINITION('international standard',
'automotive_design',2010,#298);
#298=APPLICATION_CONTEXT(
'core data for automotive mechanical design processes');
ENDSEC;
END-ISO-10303-21;
