ISO-10303-21;
HEADER;
/* Generated by software containing ST-Developer
 * from STEP Tools, Inc. (www.steptools.com) 
 */
/* OPTION: strings as raw bytes, not using required /X/ escapes */

FILE_DESCRIPTION(
/* description */ ('Unknown'),
/* implementation_level */ '2;1');

FILE_NAME(
/* name */ '27467000',
/* time_stamp */ '2022-09-08T17:20:43+02:00',
/* author */ ('Unknown'),
/* organization */ ('GROHE AG'),
/* preprocessor_version */ 'ST-DEVELOPER v16.7',
/* originating_system */ 'DEX',
/* authorisation */ $);

FILE_SCHEMA (('AUTOMOTIVE_DESIGN {1 0 10303 214 3 1 1}'));
ENDSEC;

DATA;
#10=PROPERTY_DEFINITION_REPRESENTATION(#14,#12);
#11=PROPERTY_DEFINITION_REPRESENTATION(#15,#13);
#12=REPRESENTATION('',(#16),#377);
#13=REPRESENTATION('',(#17),#377);
#14=PROPERTY_DEFINITION('pmi validation property','',#384);
#15=PROPERTY_DEFINITION('pmi validation property','',#384);
#16=VALUE_REPRESENTATION_ITEM('number of annotations',COUNT_MEASURE(0.));
#17=VALUE_REPRESENTATION_ITEM('number of views',COUNT_MEASURE(0.));
#18=CONTEXT_DEPENDENT_SHAPE_REPRESENTATION(#20,#386);
#19=NEXT_ASSEMBLY_USAGE_OCCURRENCE('601435-00-20','601435-00-20',
'601435-00-20',#387,#388,'');
#20=(
REPRESENTATION_RELATIONSHIP(' ',' ',#247,#248)
REPRESENTATION_RELATIONSHIP_WITH_TRANSFORMATION(#21)
SHAPE_REPRESENTATION_RELATIONSHIP()
);
#21=ITEM_DEFINED_TRANSFORMATION(' ',' ',#249,#270);
#22=SHAPE_REPRESENTATION_RELATIONSHIP('','',#247,#23);
#23=ADVANCED_BREP_SHAPE_REPRESENTATION('',(#244),#378);
#24=DEGENERATE_TOROIDAL_SURFACE('',#269,12.5000000002611,1584.22058822926,
 .T.);
#25=CYLINDRICAL_SURFACE('',#263,102.873183082617);
#26=TOROIDAL_SURFACE('',#261,104.0343401678,1.5);
#27=LINE('',#337,#39);
#28=LINE('',#340,#40);
#29=LINE('',#342,#41);
#30=LINE('',#344,#42);
#31=LINE('',#346,#43);
#32=LINE('',#348,#44);
#33=LINE('',#350,#45);
#34=LINE('',#352,#46);
#35=LINE('',#355,#47);
#36=LINE('',#356,#48);
#37=LINE('',#358,#49);
#38=LINE('',#359,#50);
#39=VECTOR('',#285,1000.);
#40=VECTOR('',#286,1000.);
#41=VECTOR('',#287,1000.);
#42=VECTOR('',#288,1000.);
#43=VECTOR('',#291,1000.);
#44=VECTOR('',#292,1000.);
#45=VECTOR('',#293,1000.);
#46=VECTOR('',#296,1000.);
#47=VECTOR('',#297,1000.);
#48=VECTOR('',#298,1000.);
#49=VECTOR('',#301,1000.);
#50=VECTOR('',#302,1000.);
#51=STYLED_ITEM('',(#58),#232);
#52=STYLED_ITEM('',(#59),#233);
#53=STYLED_ITEM('',(#60),#234);
#54=STYLED_ITEM('',(#61),#235);
#55=STYLED_ITEM('',(#62),#237);
#56=STYLED_ITEM('',(#63),#238);
#57=STYLED_ITEM('',(#64),#241);
#58=PRESENTATION_STYLE_ASSIGNMENT((#65));
#59=PRESENTATION_STYLE_ASSIGNMENT((#66));
#60=PRESENTATION_STYLE_ASSIGNMENT((#67));
#61=PRESENTATION_STYLE_ASSIGNMENT((#68));
#62=PRESENTATION_STYLE_ASSIGNMENT((#69));
#63=PRESENTATION_STYLE_ASSIGNMENT((#70));
#64=PRESENTATION_STYLE_ASSIGNMENT((#71));
#65=SURFACE_STYLE_USAGE(.BOTH.,#72);
#66=SURFACE_STYLE_USAGE(.BOTH.,#73);
#67=SURFACE_STYLE_USAGE(.BOTH.,#74);
#68=SURFACE_STYLE_USAGE(.BOTH.,#75);
#69=SURFACE_STYLE_USAGE(.BOTH.,#76);
#70=SURFACE_STYLE_USAGE(.BOTH.,#77);
#71=SURFACE_STYLE_USAGE(.BOTH.,#78);
#72=SURFACE_SIDE_STYLE('',(#79));
#73=SURFACE_SIDE_STYLE('',(#80));
#74=SURFACE_SIDE_STYLE('',(#81));
#75=SURFACE_SIDE_STYLE('',(#82));
#76=SURFACE_SIDE_STYLE('',(#83));
#77=SURFACE_SIDE_STYLE('',(#84));
#78=SURFACE_SIDE_STYLE('',(#85));
#79=SURFACE_STYLE_FILL_AREA(#86);
#80=SURFACE_STYLE_FILL_AREA(#87);
#81=SURFACE_STYLE_FILL_AREA(#88);
#82=SURFACE_STYLE_FILL_AREA(#89);
#83=SURFACE_STYLE_FILL_AREA(#90);
#84=SURFACE_STYLE_FILL_AREA(#91);
#85=SURFACE_STYLE_FILL_AREA(#92);
#86=FILL_AREA_STYLE('',(#93));
#87=FILL_AREA_STYLE('',(#94));
#88=FILL_AREA_STYLE('',(#95));
#89=FILL_AREA_STYLE('',(#96));
#90=FILL_AREA_STYLE('',(#97));
#91=FILL_AREA_STYLE('',(#98));
#92=FILL_AREA_STYLE('',(#99));
#93=FILL_AREA_STYLE_COLOUR('',#100);
#94=FILL_AREA_STYLE_COLOUR('',#100);
#95=FILL_AREA_STYLE_COLOUR('',#100);
#96=FILL_AREA_STYLE_COLOUR('',#100);
#97=FILL_AREA_STYLE_COLOUR('',#100);
#98=FILL_AREA_STYLE_COLOUR('',#100);
#99=FILL_AREA_STYLE_COLOUR('',#100);
#100=COLOUR_RGB('',0.282352954149246,0.282352954149246,0.282352954149246);
#101=CONICAL_SURFACE('',#253,104.942837756257,0.857606123092944);
#102=ORIENTED_EDGE('',*,*,#140,.F.);
#103=ORIENTED_EDGE('',*,*,#141,.T.);
#104=ORIENTED_EDGE('',*,*,#142,.F.);
#105=ORIENTED_EDGE('',*,*,#140,.T.);
#106=ORIENTED_EDGE('',*,*,#143,.F.);
#107=ORIENTED_EDGE('',*,*,#144,.F.);
#108=ORIENTED_EDGE('',*,*,#145,.T.);
#109=ORIENTED_EDGE('',*,*,#146,.T.);
#110=ORIENTED_EDGE('',*,*,#143,.T.);
#111=ORIENTED_EDGE('',*,*,#147,.T.);
#112=ORIENTED_EDGE('',*,*,#148,.F.);
#113=ORIENTED_EDGE('',*,*,#149,.F.);
#114=ORIENTED_EDGE('',*,*,#150,.F.);
#115=ORIENTED_EDGE('',*,*,#151,.T.);
#116=ORIENTED_EDGE('',*,*,#148,.T.);
#117=ORIENTED_EDGE('',*,*,#152,.T.);
#118=ORIENTED_EDGE('',*,*,#145,.F.);
#119=ORIENTED_EDGE('',*,*,#153,.F.);
#120=ORIENTED_EDGE('',*,*,#150,.T.);
#121=ORIENTED_EDGE('',*,*,#154,.T.);
#122=ORIENTED_EDGE('',*,*,#142,.T.);
#123=ORIENTED_EDGE('',*,*,#154,.F.);
#124=ORIENTED_EDGE('',*,*,#152,.F.);
#125=ORIENTED_EDGE('',*,*,#147,.F.);
#126=ORIENTED_EDGE('',*,*,#146,.F.);
#127=ORIENTED_EDGE('',*,*,#153,.T.);
#128=ORIENTED_EDGE('',*,*,#144,.T.);
#129=ORIENTED_EDGE('',*,*,#149,.T.);
#130=ORIENTED_EDGE('',*,*,#151,.F.);
#131=ORIENTED_EDGE('',*,*,#141,.F.);
#132=ORIENTED_EDGE('',*,*,#155,.F.);
#133=ORIENTED_EDGE('',*,*,#155,.T.);
#134=ORIENTED_EDGE('',*,*,#156,.T.);
#135=ORIENTED_EDGE('',*,*,#156,.F.);
#136=ORIENTED_EDGE('',*,*,#157,.T.);
#137=ORIENTED_EDGE('',*,*,#158,.T.);
#138=ORIENTED_EDGE('',*,*,#157,.F.);
#139=ORIENTED_EDGE('',*,*,#158,.F.);
#140=EDGE_CURVE('',#159,#159,#174,.T.);
#141=EDGE_CURVE('',#160,#160,#175,.F.);
#142=EDGE_CURVE('',#161,#161,#176,.T.);
#143=EDGE_CURVE('',#162,#163,#27,.T.);
#144=EDGE_CURVE('',#164,#162,#28,.T.);
#145=EDGE_CURVE('',#164,#165,#29,.T.);
#146=EDGE_CURVE('',#165,#163,#30,.F.);
#147=EDGE_CURVE('',#163,#166,#31,.F.);
#148=EDGE_CURVE('',#167,#166,#32,.T.);
#149=EDGE_CURVE('',#162,#167,#33,.T.);
#150=EDGE_CURVE('',#168,#169,#34,.T.);
#151=EDGE_CURVE('',#168,#167,#35,.T.);
#152=EDGE_CURVE('',#166,#169,#36,.T.);
#153=EDGE_CURVE('',#168,#164,#37,.T.);
#154=EDGE_CURVE('',#169,#165,#38,.T.);
#155=EDGE_CURVE('',#170,#170,#177,.T.);
#156=EDGE_CURVE('',#171,#171,#178,.T.);
#157=EDGE_CURVE('',#172,#172,#179,.T.);
#158=EDGE_CURVE('',#173,#173,#180,.T.);
#159=VERTEX_POINT('',#330);
#160=VERTEX_POINT('',#332);
#161=VERTEX_POINT('',#335);
#162=VERTEX_POINT('',#338);
#163=VERTEX_POINT('',#339);
#164=VERTEX_POINT('',#341);
#165=VERTEX_POINT('',#343);
#166=VERTEX_POINT('',#347);
#167=VERTEX_POINT('',#349);
#168=VERTEX_POINT('',#353);
#169=VERTEX_POINT('',#354);
#170=VERTEX_POINT('',#364);
#171=VERTEX_POINT('',#367);
#172=VERTEX_POINT('',#370);
#173=VERTEX_POINT('',#373);
#174=CIRCLE('',#251,104.942837756257);
#175=CIRCLE('',#252,102.906375831597);
#176=CIRCLE('',#254,106.652800545555);
#177=CIRCLE('',#262,102.873183082617);
#178=CIRCLE('',#264,102.873183082617);
#179=CIRCLE('',#266,102.350000000004);
#180=CIRCLE('',#268,12.5);
#181=EDGE_LOOP('',(#102));
#182=EDGE_LOOP('',(#103));
#183=EDGE_LOOP('',(#104));
#184=EDGE_LOOP('',(#105));
#185=EDGE_LOOP('',(#106,#107,#108,#109));
#186=EDGE_LOOP('',(#110,#111,#112,#113));
#187=EDGE_LOOP('',(#114,#115,#116,#117));
#188=EDGE_LOOP('',(#118,#119,#120,#121));
#189=EDGE_LOOP('',(#122));
#190=EDGE_LOOP('',(#123,#124,#125,#126));
#191=EDGE_LOOP('',(#127,#128,#129,#130));
#192=EDGE_LOOP('',(#131));
#193=EDGE_LOOP('',(#132));
#194=EDGE_LOOP('',(#133));
#195=EDGE_LOOP('',(#134));
#196=EDGE_LOOP('',(#135));
#197=EDGE_LOOP('',(#136));
#198=EDGE_LOOP('',(#137));
#199=EDGE_LOOP('',(#138));
#200=EDGE_LOOP('',(#139));
#201=FACE_BOUND('',#181,.T.);
#202=FACE_BOUND('',#182,.T.);
#203=FACE_BOUND('',#183,.T.);
#204=FACE_BOUND('',#184,.T.);
#205=FACE_BOUND('',#185,.T.);
#206=FACE_BOUND('',#186,.T.);
#207=FACE_BOUND('',#187,.T.);
#208=FACE_BOUND('',#188,.T.);
#209=FACE_BOUND('',#189,.T.);
#210=FACE_BOUND('',#190,.T.);
#211=FACE_BOUND('',#191,.T.);
#212=FACE_BOUND('',#192,.T.);
#213=FACE_BOUND('',#193,.T.);
#214=FACE_BOUND('',#194,.T.);
#215=FACE_BOUND('',#195,.T.);
#216=FACE_BOUND('',#196,.T.);
#217=FACE_BOUND('',#197,.T.);
#218=FACE_BOUND('',#198,.T.);
#219=FACE_BOUND('',#199,.T.);
#220=FACE_BOUND('',#200,.T.);
#221=PLANE('',#250);
#222=PLANE('',#255);
#223=PLANE('',#256);
#224=PLANE('',#257);
#225=PLANE('',#258);
#226=PLANE('',#259);
#227=PLANE('',#260);
#228=PLANE('',#265);
#229=PLANE('',#267);
#230=ADVANCED_FACE('',(#201,#202),#221,.F.);
#231=ADVANCED_FACE('',(#203,#204),#101,.F.);
#232=ADVANCED_FACE('',(#205),#222,.T.);
#233=ADVANCED_FACE('',(#206),#223,.T.);
#234=ADVANCED_FACE('',(#207),#224,.F.);
#235=ADVANCED_FACE('',(#208),#225,.F.);
#236=ADVANCED_FACE('',(#209,#210),#226,.F.);
#237=ADVANCED_FACE('',(#211),#227,.T.);
#238=ADVANCED_FACE('',(#212,#213),#26,.F.);
#239=ADVANCED_FACE('',(#214,#215),#25,.T.);
#240=ADVANCED_FACE('',(#216,#217),#228,.F.);
#241=ADVANCED_FACE('',(#218),#229,.F.);
#242=ADVANCED_FACE('',(#219,#220),#24,.T.);
#243=CLOSED_SHELL('',(#230,#231,#232,#233,#234,#235,#236,#237,#238,#239,
#240,#241,#242));
#244=MANIFOLD_SOLID_BREP('601435-00-20',#243);
#245=SHAPE_DEFINITION_REPRESENTATION(#385,#247);
#246=SHAPE_DEFINITION_REPRESENTATION(#384,#248);
#247=SHAPE_REPRESENTATION('601435-00-20',(#249),#378);
#248=SHAPE_REPRESENTATION('27467000',(#249,#270),#377);
#249=AXIS2_PLACEMENT_3D('',#327,#271,#272);
#250=AXIS2_PLACEMENT_3D('',#328,#273,#274);
#251=AXIS2_PLACEMENT_3D('',#329,#275,#276);
#252=AXIS2_PLACEMENT_3D('',#331,#277,#278);
#253=AXIS2_PLACEMENT_3D('',#333,#279,#280);
#254=AXIS2_PLACEMENT_3D('',#334,#281,#282);
#255=AXIS2_PLACEMENT_3D('',#336,#283,#284);
#256=AXIS2_PLACEMENT_3D('',#345,#289,#290);
#257=AXIS2_PLACEMENT_3D('',#351,#294,#295);
#258=AXIS2_PLACEMENT_3D('',#357,#299,#300);
#259=AXIS2_PLACEMENT_3D('',#360,#303,#304);
#260=AXIS2_PLACEMENT_3D('',#361,#305,#306);
#261=AXIS2_PLACEMENT_3D('',#362,#307,#308);
#262=AXIS2_PLACEMENT_3D('',#363,#309,#310);
#263=AXIS2_PLACEMENT_3D('',#365,#311,#312);
#264=AXIS2_PLACEMENT_3D('',#366,#313,#314);
#265=AXIS2_PLACEMENT_3D('',#368,#315,#316);
#266=AXIS2_PLACEMENT_3D('',#369,#317,#318);
#267=AXIS2_PLACEMENT_3D('',#371,#319,#320);
#268=AXIS2_PLACEMENT_3D('',#372,#321,#322);
#269=AXIS2_PLACEMENT_3D('',#374,#323,#324);
#270=AXIS2_PLACEMENT_3D('',#375,#325,#326);
#271=DIRECTION('',(0.,0.,1.));
#272=DIRECTION('',(1.,0.,0.));
#273=DIRECTION('',(0.,0.,1.));
#274=DIRECTION('',(1.,0.,0.));
#275=DIRECTION('',(0.,0.,1.));
#276=DIRECTION('',(1.,0.,0.));
#277=DIRECTION('',(0.,0.,-1.));
#278=DIRECTION('',(-1.,0.,0.));
#279=DIRECTION('',(0.,0.,-1.));
#280=DIRECTION('',(-1.,0.,0.));
#281=DIRECTION('',(0.,0.,1.));
#282=DIRECTION('',(1.,0.,0.));
#283=DIRECTION('',(0.,-0.999657324975557,-0.0261769483078689));
#284=DIRECTION('',(0.,0.0261769483078689,-0.999657324975557));
#285=DIRECTION('',(-0.0261679842649751,0.0261679842649751,-0.99931500198837));
#286=DIRECTION('',(1.,0.,0.));
#287=DIRECTION('',(0.0261679842649751,0.0261679842649751,-0.99931500198837));
#288=DIRECTION('',(-1.,0.,0.));
#289=DIRECTION('',(0.999657324975557,0.,-0.0261769483078689));
#290=DIRECTION('',(0.,-1.,0.));
#291=DIRECTION('',(0.,-1.,0.));
#292=DIRECTION('',(-0.0261679842649751,-0.0261679842649751,-0.99931500198837));
#293=DIRECTION('',(0.,1.,0.));
#294=DIRECTION('',(0.,-0.999657324975557,0.0261769483078689));
#295=DIRECTION('',(-1.,0.,0.));
#296=DIRECTION('',(0.0261679842649751,-0.0261679842649751,-0.99931500198837));
#297=DIRECTION('',(1.,0.,0.));
#298=DIRECTION('',(-1.,0.,0.));
#299=DIRECTION('',(0.999657324975557,0.,0.0261769483078689));
#300=DIRECTION('',(0.,-1.,0.));
#301=DIRECTION('',(0.,-1.,0.));
#302=DIRECTION('',(0.,-1.,0.));
#303=DIRECTION('',(0.,0.,1.));
#304=DIRECTION('',(1.,0.,0.));
#305=DIRECTION('',(0.,0.,1.));
#306=DIRECTION('',(1.,0.,0.));
#307=DIRECTION('',(0.,0.,1.));
#308=DIRECTION('',(-1.,0.,0.));
#309=DIRECTION('',(0.,0.,-1.));
#310=DIRECTION('',(-1.,0.,0.));
#311=DIRECTION('',(0.,0.,1.));
#312=DIRECTION('',(1.,0.,0.));
#313=DIRECTION('',(0.,0.,1.));
#314=DIRECTION('',(1.,0.,0.));
#315=DIRECTION('',(0.,0.,1.));
#316=DIRECTION('',(1.,0.,0.));
#317=DIRECTION('',(0.,0.,1.));
#318=DIRECTION('',(1.,0.,0.));
#319=DIRECTION('',(0.,0.,1.));
#320=DIRECTION('',(1.,0.,0.));
#321=DIRECTION('',(0.,0.,-1.));
#322=DIRECTION('',(-1.,-4.636403809512E-14,0.));
#323=DIRECTION('',(1.3160849028249E-15,1.2358859867153E-15,1.));
#324=DIRECTION('',(1.,0.,-1.3160849028249E-15));
#325=DIRECTION('',(0.,0.,1.));
#326=DIRECTION('',(1.,0.,0.));
#327=CARTESIAN_POINT('',(0.,0.,0.));
#328=CARTESIAN_POINT('',(102.873183082617,3.45531074723815E-15,-8.37072653059057));
#329=CARTESIAN_POINT('',(-3.34951967881808E-15,3.45531074723815E-15,-8.37072653059057));
#330=CARTESIAN_POINT('',(104.942837756257,3.45531074723815E-15,-8.37072653059057));
#331=CARTESIAN_POINT('',(-3.34951967881808E-15,3.45531074723815E-15,-8.37072653059057));
#332=CARTESIAN_POINT('',(-102.906375831597,3.45531074723815E-15,-8.37072653059057));
#333=CARTESIAN_POINT('',(-3.34951967881808E-15,3.45531074723815E-15,-8.37072653059057));
#334=CARTESIAN_POINT('',(-3.34951967881808E-15,3.45531074723815E-15,-9.85));
#335=CARTESIAN_POINT('',(106.652800545555,3.45531074723815E-15,-9.85));
#336=CARTESIAN_POINT('',(-129.0500480019,-126.85,-1.8499999999999));
#337=CARTESIAN_POINT('',(126.851506512351,-126.851506512351,-1.79246861440225));
#338=CARTESIAN_POINT('',(126.85,-126.85,-1.8499999999999));
#339=CARTESIAN_POINT('',(126.640512627446,-126.640512627446,-9.85));
#340=CARTESIAN_POINT('',(-123.8510280251,-126.85,-1.8499999999999));
#341=CARTESIAN_POINT('',(-126.85,-126.85,-1.8499999999999));
#342=CARTESIAN_POINT('',(-126.851506512351,-126.851506512351,-1.79246861440225));
#343=CARTESIAN_POINT('',(-126.640512627446,-126.640512627446,-9.85));
#344=CARTESIAN_POINT('',(-129.0500480019,-126.640512627446,-9.85));
#345=CARTESIAN_POINT('',(126.85,-129.0500480019,-1.8499999999999));
#346=CARTESIAN_POINT('',(126.640512627446,-129.0500480019,-9.85));
#347=CARTESIAN_POINT('',(126.640512627447,126.640512627446,-9.85));
#348=CARTESIAN_POINT('',(126.674769012944,126.674769012944,-8.54180141676067));
#349=CARTESIAN_POINT('',(126.85,126.85,-1.8499999999999));
#350=CARTESIAN_POINT('',(126.85,-123.8510280251,-1.8499999999999));
#351=CARTESIAN_POINT('',(-129.0500480019,126.85,-1.8499999999999));
#352=CARTESIAN_POINT('',(-126.674769012944,126.674769012944,-8.54180141676067));
#353=CARTESIAN_POINT('',(-126.85,126.85,-1.8499999999999));
#354=CARTESIAN_POINT('',(-126.640512627446,126.640512627447,-9.85));
#355=CARTESIAN_POINT('',(-123.8510280251,126.85,-1.8499999999999));
#356=CARTESIAN_POINT('',(-129.0500480019,126.640512627446,-9.85));
#357=CARTESIAN_POINT('',(-126.85,-129.0500480019,-1.8499999999999));
#358=CARTESIAN_POINT('',(-126.85,123.8510280251,-1.8499999999999));
#359=CARTESIAN_POINT('',(-126.640512627446,-129.0500480019,-9.85));
#360=CARTESIAN_POINT('',(-3.34951967881808E-15,3.45531074723815E-15,-9.85));
#361=CARTESIAN_POINT('',(-3.34951967881808E-15,3.45531074723815E-15,-1.8499999999999));
#362=CARTESIAN_POINT('',(-3.34951967881808E-15,3.45531074723815E-15,-9.3595118744619));
#363=CARTESIAN_POINT('',(-3.34951967881808E-15,3.45531074723815E-15,-8.40992553108449));
#364=CARTESIAN_POINT('',(-102.873183082617,3.45531074723815E-15,-8.40992553108449));
#365=CARTESIAN_POINT('',(-3.34951967881808E-15,3.45531074723815E-15,-3.71834216254576));
#366=CARTESIAN_POINT('',(-3.34951967881808E-15,3.45531074723815E-15,-9.85));
#367=CARTESIAN_POINT('',(102.873183082617,3.45531074723815E-15,-9.85));
#368=CARTESIAN_POINT('',(102.350000000005,3.45531074723815E-15,-9.85));
#369=CARTESIAN_POINT('',(-3.34951967881808E-15,3.45531074723815E-15,-9.85));
#370=CARTESIAN_POINT('',(102.350000000004,3.45531074723815E-15,-9.85));
#371=CARTESIAN_POINT('',(-3.34951967881808E-15,3.45531074723815E-15,-12.4));
#372=CARTESIAN_POINT('',(-3.34951967881808E-15,3.45531074723815E-15,-12.4));
#373=CARTESIAN_POINT('',(-12.5,-5.76095165441762E-13,-12.4));
#374=CARTESIAN_POINT('',(2.08872699234921E-12,1.43774636472831E-12,1571.82058822927));
#375=CARTESIAN_POINT('',(0.,0.,0.));
#376=MECHANICAL_DESIGN_GEOMETRIC_PRESENTATION_REPRESENTATION('',(#51,#52,
#53,#54,#55,#56,#57),#377);
#377=(
GEOMETRIC_REPRESENTATION_CONTEXT(3)
GLOBAL_UNCERTAINTY_ASSIGNED_CONTEXT((#379))
GLOBAL_UNIT_ASSIGNED_CONTEXT((#383,#382,#381))
REPRESENTATION_CONTEXT('27467000','TOP_LEVEL_ASSEMBLY_PART')
);
#378=(
GEOMETRIC_REPRESENTATION_CONTEXT(3)
GLOBAL_UNCERTAINTY_ASSIGNED_CONTEXT((#380))
GLOBAL_UNIT_ASSIGNED_CONTEXT((#383,#382,#381))
REPRESENTATION_CONTEXT('601435-00-20','COMPONENT_PART')
);
#379=UNCERTAINTY_MEASURE_WITH_UNIT(LENGTH_MEASURE(0.005),#383,
'DISTANCE_ACCURACY_VALUE','Maximum Tolerance applied to model');
#380=UNCERTAINTY_MEASURE_WITH_UNIT(LENGTH_MEASURE(0.005),#383,
'DISTANCE_ACCURACY_VALUE','Maximum Tolerance applied to model');
#381=(
NAMED_UNIT(*)
SI_UNIT($,.STERADIAN.)
SOLID_ANGLE_UNIT()
);
#382=(
NAMED_UNIT(*)
PLANE_ANGLE_UNIT()
SI_UNIT($,.RADIAN.)
);
#383=(
LENGTH_UNIT()
NAMED_UNIT(*)
SI_UNIT(.MILLI.,.METRE.)
);
#384=PRODUCT_DEFINITION_SHAPE('','',#387);
#385=PRODUCT_DEFINITION_SHAPE('','',#388);
#386=PRODUCT_DEFINITION_SHAPE(' ','NAUO PRDDFN',#19);
#387=PRODUCT_DEFINITION('','',#391,#389);
#388=PRODUCT_DEFINITION('','',#392,#390);
#389=PRODUCT_DEFINITION_CONTEXT('',#402,'design');
#390=PRODUCT_DEFINITION_CONTEXT('',#402,'design');
#391=PRODUCT_DEFINITION_FORMATION_WITH_SPECIFIED_SOURCE('','',#395,
 .NOT_KNOWN.);
#392=PRODUCT_DEFINITION_FORMATION_WITH_SPECIFIED_SOURCE('','',#396,
 .NOT_KNOWN.);
#393=PRODUCT_RELATED_PRODUCT_CATEGORY('','',(#395));
#394=PRODUCT_RELATED_PRODUCT_CATEGORY('','',(#396));
#395=PRODUCT('27467000','27467000','27467000',(#399));
#396=PRODUCT('601435-00-20','601435-00-20','601435-00-20',(#400));
#397=PRODUCT_CATEGORY('','');
#398=PRODUCT_CATEGORY('','');
#399=PRODUCT_CONTEXT('',#402,'mechanical');
#400=PRODUCT_CONTEXT('',#402,'mechanical');
#401=APPLICATION_PROTOCOL_DEFINITION('international standard',
'automotive_design',2010,#402);
#402=APPLICATION_CONTEXT(
'core data for automotive mechanical design processes');
ENDSEC;
END-ISO-10303-21;
