ISO-10303-21;
HEADER;
/* Generated by software containing ST-Developer
 * from STEP Tools, Inc. (www.steptools.com) 
 */
/* OPTION: strings as raw bytes, not using required /X/ escapes */

FILE_DESCRIPTION(
/* description */ ('Unknown'),
/* implementation_level */ '2;1');

FILE_NAME(
/* name */ '28409000',
/* time_stamp */ '2022-09-08T15:44:30+02:00',
/* author */ ('Unknown'),
/* organization */ ('GROHE AG'),
/* preprocessor_version */ 'ST-DEVELOPER v16.7',
/* originating_system */ 'DEX',
/* authorisation */ $);

FILE_SCHEMA (('AUTOMOTIVE_DESIGN {1 0 10303 214 3 1 1}'));
ENDSEC;

DATA;
#10=PROPERTY_DEFINITION_REPRESENTATION(#14,#12);
#11=PROPERTY_DEFINITION_REPRESENTATION(#15,#13);
#12=REPRESENTATION('',(#16),#293);
#13=REPRESENTATION('',(#17),#293);
#14=PROPERTY_DEFINITION('pmi validation property','',#300);
#15=PROPERTY_DEFINITION('pmi validation property','',#300);
#16=VALUE_REPRESENTATION_ITEM('number of annotations',COUNT_MEASURE(0.));
#17=VALUE_REPRESENTATION_ITEM('number of views',COUNT_MEASURE(0.));
#18=CONTEXT_DEPENDENT_SHAPE_REPRESENTATION(#20,#302);
#19=NEXT_ASSEMBLY_USAGE_OCCURRENCE('28409000','28409000','28409000',#303,
#304,'');
#20=(
REPRESENTATION_RELATIONSHIP(' ',' ',#170,#171)
REPRESENTATION_RELATIONSHIP_WITH_TRANSFORMATION(#21)
SHAPE_REPRESENTATION_RELATIONSHIP()
);
#21=ITEM_DEFINED_TRANSFORMATION(' ',' ',#172,#198);
#22=SHAPE_REPRESENTATION_RELATIONSHIP('','',#170,#23);
#23=ADVANCED_BREP_SHAPE_REPRESENTATION('',(#167),#294);
#24=CONICAL_SURFACE('',#182,11.499999999998,0.969853025297652);
#25=CONICAL_SURFACE('',#184,11.8596669112875,0.0552277604343044);
#26=CONICAL_SURFACE('',#186,10.3068692674389,0.562728218352088);
#27=PLANE('',#176);
#28=PLANE('',#178);
#29=PLANE('',#192);
#30=PLANE('',#196);
#31=PLANE('',#197);
#32=ORIENTED_EDGE('',*,*,#56,.F.);
#33=ORIENTED_EDGE('',*,*,#57,.T.);
#34=ORIENTED_EDGE('',*,*,#58,.T.);
#35=ORIENTED_EDGE('',*,*,#56,.T.);
#36=ORIENTED_EDGE('',*,*,#59,.F.);
#37=ORIENTED_EDGE('',*,*,#60,.F.);
#38=ORIENTED_EDGE('',*,*,#59,.T.);
#39=ORIENTED_EDGE('',*,*,#61,.F.);
#40=ORIENTED_EDGE('',*,*,#60,.T.);
#41=ORIENTED_EDGE('',*,*,#62,.F.);
#42=ORIENTED_EDGE('',*,*,#61,.T.);
#43=ORIENTED_EDGE('',*,*,#57,.F.);
#44=ORIENTED_EDGE('',*,*,#62,.T.);
#45=ORIENTED_EDGE('',*,*,#58,.F.);
#46=ORIENTED_EDGE('',*,*,#63,.F.);
#47=ORIENTED_EDGE('',*,*,#64,.F.);
#48=ORIENTED_EDGE('',*,*,#65,.T.);
#49=ORIENTED_EDGE('',*,*,#66,.F.);
#50=ORIENTED_EDGE('',*,*,#64,.T.);
#51=ORIENTED_EDGE('',*,*,#67,.F.);
#52=ORIENTED_EDGE('',*,*,#66,.T.);
#53=ORIENTED_EDGE('',*,*,#63,.T.);
#54=ORIENTED_EDGE('',*,*,#67,.T.);
#55=ORIENTED_EDGE('',*,*,#65,.F.);
#56=EDGE_CURVE('',#68,#68,#80,.F.);
#57=EDGE_CURVE('',#69,#69,#81,.T.);
#58=EDGE_CURVE('',#70,#70,#82,.T.);
#59=EDGE_CURVE('',#71,#71,#83,.T.);
#60=EDGE_CURVE('',#72,#72,#84,.T.);
#61=EDGE_CURVE('',#73,#73,#85,.T.);
#62=EDGE_CURVE('',#74,#74,#86,.T.);
#63=EDGE_CURVE('',#75,#75,#87,.T.);
#64=EDGE_CURVE('',#76,#76,#88,.F.);
#65=EDGE_CURVE('',#77,#77,#89,.T.);
#66=EDGE_CURVE('',#78,#78,#90,.T.);
#67=EDGE_CURVE('',#79,#79,#91,.T.);
#68=VERTEX_POINT('',#256);
#69=VERTEX_POINT('',#258);
#70=VERTEX_POINT('',#261);
#71=VERTEX_POINT('',#264);
#72=VERTEX_POINT('',#267);
#73=VERTEX_POINT('',#270);
#74=VERTEX_POINT('',#273);
#75=VERTEX_POINT('',#277);
#76=VERTEX_POINT('',#280);
#77=VERTEX_POINT('',#282);
#78=VERTEX_POINT('',#285);
#79=VERTEX_POINT('',#288);
#80=CIRCLE('',#174,9.95000000000013);
#81=CIRCLE('',#175,9.95000000000013);
#82=CIRCLE('',#177,6.);
#83=CIRCLE('',#179,11.499999999998);
#84=CIRCLE('',#181,11.499999999998);
#85=CIRCLE('',#183,11.8596669112875);
#86=CIRCLE('',#185,10.3068692674389);
#87=CIRCLE('',#188,6.);
#88=CIRCLE('',#190,11.4895222911832);
#89=CIRCLE('',#191,11.4895222911832);
#90=CIRCLE('',#193,7.5);
#91=CIRCLE('',#195,7.5);
#92=EDGE_LOOP('',(#32));
#93=EDGE_LOOP('',(#33));
#94=EDGE_LOOP('',(#34));
#95=EDGE_LOOP('',(#35));
#96=EDGE_LOOP('',(#36));
#97=EDGE_LOOP('',(#37));
#98=EDGE_LOOP('',(#38));
#99=EDGE_LOOP('',(#39));
#100=EDGE_LOOP('',(#40));
#101=EDGE_LOOP('',(#41));
#102=EDGE_LOOP('',(#42));
#103=EDGE_LOOP('',(#43));
#104=EDGE_LOOP('',(#44));
#105=EDGE_LOOP('',(#45));
#106=EDGE_LOOP('',(#46));
#107=EDGE_LOOP('',(#47));
#108=EDGE_LOOP('',(#48));
#109=EDGE_LOOP('',(#49));
#110=EDGE_LOOP('',(#50));
#111=EDGE_LOOP('',(#51));
#112=EDGE_LOOP('',(#52));
#113=EDGE_LOOP('',(#53));
#114=EDGE_LOOP('',(#54));
#115=EDGE_LOOP('',(#55));
#116=FACE_BOUND('',#92,.T.);
#117=FACE_BOUND('',#93,.T.);
#118=FACE_BOUND('',#94,.T.);
#119=FACE_BOUND('',#95,.T.);
#120=FACE_BOUND('',#96,.T.);
#121=FACE_BOUND('',#97,.T.);
#122=FACE_BOUND('',#98,.T.);
#123=FACE_BOUND('',#99,.T.);
#124=FACE_BOUND('',#100,.T.);
#125=FACE_BOUND('',#101,.T.);
#126=FACE_BOUND('',#102,.T.);
#127=FACE_BOUND('',#103,.T.);
#128=FACE_BOUND('',#104,.T.);
#129=FACE_BOUND('',#105,.T.);
#130=FACE_BOUND('',#106,.T.);
#131=FACE_BOUND('',#107,.T.);
#132=FACE_BOUND('',#108,.T.);
#133=FACE_BOUND('',#109,.T.);
#134=FACE_BOUND('',#110,.T.);
#135=FACE_BOUND('',#111,.T.);
#136=FACE_BOUND('',#112,.T.);
#137=FACE_BOUND('',#113,.T.);
#138=FACE_BOUND('',#114,.T.);
#139=FACE_BOUND('',#115,.T.);
#140=CYLINDRICAL_SURFACE('',#173,9.95000000000013);
#141=CYLINDRICAL_SURFACE('',#180,11.499999999998);
#142=CYLINDRICAL_SURFACE('',#187,6.);
#143=CYLINDRICAL_SURFACE('',#189,11.4895222911832);
#144=CYLINDRICAL_SURFACE('',#194,7.5);
#145=ADVANCED_FACE('',(#116,#117),#140,.T.);
#146=ADVANCED_FACE('',(#118,#119),#27,.F.);
#147=ADVANCED_FACE('',(#120),#28,.F.);
#148=ADVANCED_FACE('',(#121,#122),#141,.T.);
#149=ADVANCED_FACE('',(#123,#124),#24,.T.);
#150=ADVANCED_FACE('',(#125,#126),#25,.T.);
#151=ADVANCED_FACE('',(#127,#128),#26,.T.);
#152=ADVANCED_FACE('',(#129,#130),#142,.T.);
#153=ADVANCED_FACE('',(#131,#132),#143,.T.);
#154=ADVANCED_FACE('',(#133,#134),#29,.F.);
#155=ADVANCED_FACE('',(#135,#136),#144,.T.);
#156=ADVANCED_FACE('',(#137,#138),#30,.F.);
#157=ADVANCED_FACE('',(#139),#31,.F.);
#158=CLOSED_SHELL('',(#145,#146,#147,#148,#149,#150,#151,#152,#153,#154,
#155,#156,#157));
#159=STYLED_ITEM('',(#160),#167);
#160=PRESENTATION_STYLE_ASSIGNMENT((#161));
#161=SURFACE_STYLE_USAGE(.BOTH.,#162);
#162=SURFACE_SIDE_STYLE('',(#163));
#163=SURFACE_STYLE_FILL_AREA(#164);
#164=FILL_AREA_STYLE('',(#165));
#165=FILL_AREA_STYLE_COLOUR('',#166);
#166=COLOUR_RGB('',0.517647087574005,0.517647087574005,0.517647087574005);
#167=MANIFOLD_SOLID_BREP('',#158);
#168=SHAPE_DEFINITION_REPRESENTATION(#301,#170);
#169=SHAPE_DEFINITION_REPRESENTATION(#300,#171);
#170=SHAPE_REPRESENTATION('28409000',(#172),#294);
#171=SHAPE_REPRESENTATION('28409000',(#172,#198),#293);
#172=AXIS2_PLACEMENT_3D('',#253,#199,#200);
#173=AXIS2_PLACEMENT_3D('',#254,#201,#202);
#174=AXIS2_PLACEMENT_3D('',#255,#203,#204);
#175=AXIS2_PLACEMENT_3D('',#257,#205,#206);
#176=AXIS2_PLACEMENT_3D('',#259,#207,#208);
#177=AXIS2_PLACEMENT_3D('',#260,#209,#210);
#178=AXIS2_PLACEMENT_3D('',#262,#211,#212);
#179=AXIS2_PLACEMENT_3D('',#263,#213,#214);
#180=AXIS2_PLACEMENT_3D('',#265,#215,#216);
#181=AXIS2_PLACEMENT_3D('',#266,#217,#218);
#182=AXIS2_PLACEMENT_3D('',#268,#219,#220);
#183=AXIS2_PLACEMENT_3D('',#269,#221,#222);
#184=AXIS2_PLACEMENT_3D('',#271,#223,#224);
#185=AXIS2_PLACEMENT_3D('',#272,#225,#226);
#186=AXIS2_PLACEMENT_3D('',#274,#227,#228);
#187=AXIS2_PLACEMENT_3D('',#275,#229,#230);
#188=AXIS2_PLACEMENT_3D('',#276,#231,#232);
#189=AXIS2_PLACEMENT_3D('',#278,#233,#234);
#190=AXIS2_PLACEMENT_3D('',#279,#235,#236);
#191=AXIS2_PLACEMENT_3D('',#281,#237,#238);
#192=AXIS2_PLACEMENT_3D('',#283,#239,#240);
#193=AXIS2_PLACEMENT_3D('',#284,#241,#242);
#194=AXIS2_PLACEMENT_3D('',#286,#243,#244);
#195=AXIS2_PLACEMENT_3D('',#287,#245,#246);
#196=AXIS2_PLACEMENT_3D('',#289,#247,#248);
#197=AXIS2_PLACEMENT_3D('',#290,#249,#250);
#198=AXIS2_PLACEMENT_3D('',#291,#251,#252);
#199=DIRECTION('',(0.,0.,1.));
#200=DIRECTION('',(1.,0.,0.));
#201=DIRECTION('',(0.,0.,-1.));
#202=DIRECTION('',(-1.,0.,0.));
#203=DIRECTION('',(0.,0.,1.));
#204=DIRECTION('',(1.,0.,0.));
#205=DIRECTION('',(0.,0.,-1.));
#206=DIRECTION('',(-1.,0.,0.));
#207=DIRECTION('',(0.,0.,1.));
#208=DIRECTION('',(1.,0.,0.));
#209=DIRECTION('',(0.,0.,1.));
#210=DIRECTION('',(1.,0.,0.));
#211=DIRECTION('',(0.,0.,-1.));
#212=DIRECTION('',(-1.,0.,0.));
#213=DIRECTION('',(0.,0.,-1.));
#214=DIRECTION('',(-1.,0.,0.));
#215=DIRECTION('',(0.,0.,-1.));
#216=DIRECTION('',(-1.,0.,0.));
#217=DIRECTION('',(0.,0.,-1.));
#218=DIRECTION('',(-1.,0.,0.));
#219=DIRECTION('',(0.,0.,-1.));
#220=DIRECTION('',(-1.,0.,0.));
#221=DIRECTION('',(0.,0.,-1.));
#222=DIRECTION('',(-1.,0.,0.));
#223=DIRECTION('',(0.,0.,1.));
#224=DIRECTION('',(1.,0.,0.));
#225=DIRECTION('',(0.,0.,-1.));
#226=DIRECTION('',(-1.,0.,0.));
#227=DIRECTION('',(0.,0.,1.));
#228=DIRECTION('',(1.,0.,0.));
#229=DIRECTION('',(-1.83591567874212E-16,0.,1.));
#230=DIRECTION('',(1.,0.,1.83591567874212E-16));
#231=DIRECTION('',(6.09568962412806E-17,0.,-1.));
#232=DIRECTION('',(-1.,0.,-6.09568962412806E-17));
#233=DIRECTION('',(-6.09568962412806E-17,0.,1.));
#234=DIRECTION('',(1.,0.,6.09568962412806E-17));
#235=DIRECTION('',(6.09568962412806E-17,0.,-1.));
#236=DIRECTION('',(-1.,0.,-6.09568962412806E-17));
#237=DIRECTION('',(-6.09568962412806E-17,0.,1.));
#238=DIRECTION('',(1.,0.,6.09568962412806E-17));
#239=DIRECTION('',(6.09568962412806E-17,0.,-1.));
#240=DIRECTION('',(-1.,0.,-6.09568962412806E-17));
#241=DIRECTION('',(-6.09568962412806E-17,0.,1.));
#242=DIRECTION('',(1.,0.,6.09568962412806E-17));
#243=DIRECTION('',(-6.09568962412806E-17,0.,1.));
#244=DIRECTION('',(1.,0.,6.09568962412806E-17));
#245=DIRECTION('',(-6.09568962412806E-17,0.,1.));
#246=DIRECTION('',(1.,0.,6.09568962412806E-17));
#247=DIRECTION('',(6.09568962412806E-17,0.,-1.));
#248=DIRECTION('',(-1.,0.,-6.09568962412806E-17));
#249=DIRECTION('',(-6.09568962412806E-17,0.,1.));
#250=DIRECTION('',(1.,0.,6.09568962412806E-17));
#251=DIRECTION('',(0.,0.,1.));
#252=DIRECTION('',(1.,0.,0.));
#253=CARTESIAN_POINT('',(0.,0.,0.));
#254=CARTESIAN_POINT('',(0.,0.,1464.7));
#255=CARTESIAN_POINT('',(0.,0.,1464.7));
#256=CARTESIAN_POINT('',(9.95000000000013,0.,1464.7));
#257=CARTESIAN_POINT('',(0.,0.,1467.9));
#258=CARTESIAN_POINT('',(-9.95000000000013,0.,1467.9));
#259=CARTESIAN_POINT('',(-5.96995597488418E-16,-9.75000000000015,1464.7));
#260=CARTESIAN_POINT('',(-2.68906569465359E-13,0.,1464.7));
#261=CARTESIAN_POINT('',(5.99999999999973,0.,1464.7));
#262=CARTESIAN_POINT('',(-6.73533494602182E-16,-10.999999999998,1500.));
#263=CARTESIAN_POINT('',(0.,0.,1500.));
#264=CARTESIAN_POINT('',(-11.499999999998,0.,1500.));
#265=CARTESIAN_POINT('',(0.,0.,1464.7));
#266=CARTESIAN_POINT('',(0.,0.,1496.8));
#267=CARTESIAN_POINT('',(-11.499999999998,0.,1496.8));
#268=CARTESIAN_POINT('',(0.,0.,1496.8));
#269=CARTESIAN_POINT('',(0.,0.,1496.55344023609));
#270=CARTESIAN_POINT('',(-11.8596669112875,0.,1496.55344023609));
#271=CARTESIAN_POINT('',(0.,0.,1496.55344023609));
#272=CARTESIAN_POINT('',(0.,0.,1468.46577964088));
#273=CARTESIAN_POINT('',(-10.3068692674389,0.,1468.46577964088));
#274=CARTESIAN_POINT('',(0.,0.,1468.46577964088));
#275=CARTESIAN_POINT('',(0.,0.,0.));
#276=CARTESIAN_POINT('',(-5.7144996017329E-15,0.,31.1261550184494));
#277=CARTESIAN_POINT('',(-6.00000000000001,0.,31.1261550184494));
#278=CARTESIAN_POINT('',(-0.237699628548979,0.,3.46944695195361E-15));
#279=CARTESIAN_POINT('',(-0.23769962854898,0.,13.6987227112782));
#280=CARTESIAN_POINT('',(-11.7272219197321,0.,13.6987227112782));
#281=CARTESIAN_POINT('',(-0.237699628548979,0.,3.14061815196497E-15));
#282=CARTESIAN_POINT('',(11.2518226626342,0.,3.84098377013051E-15));
#283=CARTESIAN_POINT('',(10.7518226625288,0.,13.6987227112782));
#284=CARTESIAN_POINT('',(-0.23769962854898,0.,13.6987227112782));
#285=CARTESIAN_POINT('',(7.26230037145102,0.,13.6987227112782));
#286=CARTESIAN_POINT('',(-0.237699628548979,0.,3.46944695195361E-15));
#287=CARTESIAN_POINT('',(-0.237699628548981,0.,31.1261550184494));
#288=CARTESIAN_POINT('',(7.26230037145102,0.,31.1261550184494));
#289=CARTESIAN_POINT('',(7.26230037145103,0.,31.1261550184494));
#290=CARTESIAN_POINT('',(10.5511961409162,0.,3.79827575194226E-15));
#291=CARTESIAN_POINT('',(0.,0.,0.));
#292=MECHANICAL_DESIGN_GEOMETRIC_PRESENTATION_REPRESENTATION('',(#159),
#293);
#293=(
GEOMETRIC_REPRESENTATION_CONTEXT(3)
GLOBAL_UNCERTAINTY_ASSIGNED_CONTEXT((#295))
GLOBAL_UNIT_ASSIGNED_CONTEXT((#299,#298,#297))
REPRESENTATION_CONTEXT('28409000','TOP_LEVEL_ASSEMBLY_PART')
);
#294=(
GEOMETRIC_REPRESENTATION_CONTEXT(3)
GLOBAL_UNCERTAINTY_ASSIGNED_CONTEXT((#296))
GLOBAL_UNIT_ASSIGNED_CONTEXT((#299,#298,#297))
REPRESENTATION_CONTEXT('28409000','COMPONENT_PART')
);
#295=UNCERTAINTY_MEASURE_WITH_UNIT(LENGTH_MEASURE(0.005),#299,
'DISTANCE_ACCURACY_VALUE','Maximum Tolerance applied to model');
#296=UNCERTAINTY_MEASURE_WITH_UNIT(LENGTH_MEASURE(0.005),#299,
'DISTANCE_ACCURACY_VALUE','Maximum Tolerance applied to model');
#297=(
NAMED_UNIT(*)
SI_UNIT($,.STERADIAN.)
SOLID_ANGLE_UNIT()
);
#298=(
NAMED_UNIT(*)
PLANE_ANGLE_UNIT()
SI_UNIT($,.RADIAN.)
);
#299=(
LENGTH_UNIT()
NAMED_UNIT(*)
SI_UNIT(.MILLI.,.METRE.)
);
#300=PRODUCT_DEFINITION_SHAPE('','',#303);
#301=PRODUCT_DEFINITION_SHAPE('','',#304);
#302=PRODUCT_DEFINITION_SHAPE(' ','NAUO PRDDFN',#19);
#303=PRODUCT_DEFINITION('','',#307,#305);
#304=PRODUCT_DEFINITION('','',#308,#306);
#305=PRODUCT_DEFINITION_CONTEXT('',#318,'design');
#306=PRODUCT_DEFINITION_CONTEXT('',#318,'design');
#307=PRODUCT_DEFINITION_FORMATION_WITH_SPECIFIED_SOURCE('','',#311,
 .NOT_KNOWN.);
#308=PRODUCT_DEFINITION_FORMATION_WITH_SPECIFIED_SOURCE('','',#312,
 .NOT_KNOWN.);
#309=PRODUCT_RELATED_PRODUCT_CATEGORY('','',(#311));
#310=PRODUCT_RELATED_PRODUCT_CATEGORY('','',(#312));
#311=PRODUCT('28409000','28409000','28409000',(#315));
#312=PRODUCT('28409000','28409000','28409000',(#316));
#313=PRODUCT_CATEGORY('','');
#314=PRODUCT_CATEGORY('','');
#315=PRODUCT_CONTEXT('',#318,'mechanical');
#316=PRODUCT_CONTEXT('',#318,'mechanical');
#317=APPLICATION_PROTOCOL_DEFINITION('international standard',
'automotive_design',2010,#318);
#318=APPLICATION_CONTEXT(
'core data for automotive mechanical design processes');
ENDSEC;
END-ISO-10303-21;
