ISO-10303-21;
HEADER;
/* Generated by software containing ST-Developer
 * from STEP Tools, Inc. (www.steptools.com) 
 */
/* OPTION: strings as raw bytes, not using required /X/ escapes */

FILE_DESCRIPTION(
/* description */ ('Unknown'),
/* implementation_level */ '2;1');

FILE_NAME(
/* name */ '28151001',
/* time_stamp */ '2022-09-07T05:35:30+02:00',
/* author */ ('Unknown'),
/* organization */ ('GROHE AG'),
/* preprocessor_version */ 'ST-DEVELOPER v16.7',
/* originating_system */ 'DEX',
/* authorisation */ $);

FILE_SCHEMA (('AUTOMOTIVE_DESIGN {1 0 10303 214 3 1 1}'));
ENDSEC;

DATA;
#10=PROPERTY_DEFINITION_REPRESENTATION(#14,#12);
#11=PROPERTY_DEFINITION_REPRESENTATION(#15,#13);
#12=REPRESENTATION('',(#16),#565);
#13=REPRESENTATION('',(#17),#565);
#14=PROPERTY_DEFINITION('pmi validation property','',#574);
#15=PROPERTY_DEFINITION('pmi validation property','',#574);
#16=VALUE_REPRESENTATION_ITEM('number of annotations',COUNT_MEASURE(0.));
#17=VALUE_REPRESENTATION_ITEM('number of views',COUNT_MEASURE(0.));
#18=CONICAL_SURFACE('',#383,11.3,0.785398163397448);
#19=CONICAL_SURFACE('',#386,11.8,0.0523598639531969);
#20=CONICAL_SURFACE('',#388,10.569436,0.785399777771893);
#21=CONTEXT_DEPENDENT_SHAPE_REPRESENTATION(#25,#576);
#22=CONTEXT_DEPENDENT_SHAPE_REPRESENTATION(#26,#578);
#23=NEXT_ASSEMBLY_USAGE_OCCURRENCE('28151001','28151001','28151001',#579,
#580,'');
#24=NEXT_ASSEMBLY_USAGE_OCCURRENCE('28151001_0','28151001_0',
'28151001_0',#579,#581,'');
#25=(
REPRESENTATION_RELATIONSHIP(' ',' ',#361,#362)
REPRESENTATION_RELATIONSHIP_WITH_TRANSFORMATION(#27)
SHAPE_REPRESENTATION_RELATIONSHIP()
);
#26=(
REPRESENTATION_RELATIONSHIP(' ',' ',#363,#362)
REPRESENTATION_RELATIONSHIP_WITH_TRANSFORMATION(#28)
SHAPE_REPRESENTATION_RELATIONSHIP()
);
#27=ITEM_DEFINED_TRANSFORMATION(' ',' ',#364,#382);
#28=ITEM_DEFINED_TRANSFORMATION(' ',' ',#364,#408);
#29=SHAPE_REPRESENTATION_RELATIONSHIP('','',#361,#31);
#30=SHAPE_REPRESENTATION_RELATIONSHIP('','',#363,#32);
#31=ADVANCED_BREP_SHAPE_REPRESENTATION('',(#356),#566);
#32=ADVANCED_BREP_SHAPE_REPRESENTATION('',(#357),#567);
#33=TOROIDAL_SURFACE('',#374,10.5,1.);
#34=TOROIDAL_SURFACE('',#378,10.5,1.00000000000003);
#35=TOROIDAL_SURFACE('',#392,9.15,0.800000000000023);
#36=TOROIDAL_SURFACE('',#404,10.8,0.5);
#37=PLANE('',#368);
#38=PLANE('',#372);
#39=PLANE('',#380);
#40=PLANE('',#381);
#41=PLANE('',#394);
#42=PLANE('',#398);
#43=PLANE('',#402);
#44=PLANE('',#407);
#45=ORIENTED_EDGE('',*,*,#85,.F.);
#46=ORIENTED_EDGE('',*,*,#86,.F.);
#47=ORIENTED_EDGE('',*,*,#87,.F.);
#48=ORIENTED_EDGE('',*,*,#85,.T.);
#49=ORIENTED_EDGE('',*,*,#88,.F.);
#50=ORIENTED_EDGE('',*,*,#87,.T.);
#51=ORIENTED_EDGE('',*,*,#89,.F.);
#52=ORIENTED_EDGE('',*,*,#88,.T.);
#53=ORIENTED_EDGE('',*,*,#90,.F.);
#54=ORIENTED_EDGE('',*,*,#89,.T.);
#55=ORIENTED_EDGE('',*,*,#91,.F.);
#56=ORIENTED_EDGE('',*,*,#90,.T.);
#57=ORIENTED_EDGE('',*,*,#92,.F.);
#58=ORIENTED_EDGE('',*,*,#91,.T.);
#59=ORIENTED_EDGE('',*,*,#92,.T.);
#60=ORIENTED_EDGE('',*,*,#86,.T.);
#61=ORIENTED_EDGE('',*,*,#93,.F.);
#62=ORIENTED_EDGE('',*,*,#94,.T.);
#63=ORIENTED_EDGE('',*,*,#95,.F.);
#64=ORIENTED_EDGE('',*,*,#93,.T.);
#65=ORIENTED_EDGE('',*,*,#96,.F.);
#66=ORIENTED_EDGE('',*,*,#95,.T.);
#67=ORIENTED_EDGE('',*,*,#97,.F.);
#68=ORIENTED_EDGE('',*,*,#96,.T.);
#69=ORIENTED_EDGE('',*,*,#98,.F.);
#70=ORIENTED_EDGE('',*,*,#97,.T.);
#71=ORIENTED_EDGE('',*,*,#99,.F.);
#72=ORIENTED_EDGE('',*,*,#98,.T.);
#73=ORIENTED_EDGE('',*,*,#100,.F.);
#74=ORIENTED_EDGE('',*,*,#99,.T.);
#75=ORIENTED_EDGE('',*,*,#101,.F.);
#76=ORIENTED_EDGE('',*,*,#100,.T.);
#77=ORIENTED_EDGE('',*,*,#101,.T.);
#78=ORIENTED_EDGE('',*,*,#102,.T.);
#79=ORIENTED_EDGE('',*,*,#103,.F.);
#80=ORIENTED_EDGE('',*,*,#104,.F.);
#81=ORIENTED_EDGE('',*,*,#103,.T.);
#82=ORIENTED_EDGE('',*,*,#94,.F.);
#83=ORIENTED_EDGE('',*,*,#104,.T.);
#84=ORIENTED_EDGE('',*,*,#102,.F.);
#85=EDGE_CURVE('',#105,#105,#125,.T.);
#86=EDGE_CURVE('',#106,#106,#126,.T.);
#87=EDGE_CURVE('',#107,#107,#127,.T.);
#88=EDGE_CURVE('',#108,#108,#128,.T.);
#89=EDGE_CURVE('',#109,#109,#129,.T.);
#90=EDGE_CURVE('',#110,#110,#130,.T.);
#91=EDGE_CURVE('',#111,#111,#131,.T.);
#92=EDGE_CURVE('',#112,#112,#132,.T.);
#93=EDGE_CURVE('',#113,#113,#133,.T.);
#94=EDGE_CURVE('',#114,#114,#134,.T.);
#95=EDGE_CURVE('',#115,#115,#135,.T.);
#96=EDGE_CURVE('',#116,#116,#136,.T.);
#97=EDGE_CURVE('',#117,#117,#137,.T.);
#98=EDGE_CURVE('',#118,#118,#138,.T.);
#99=EDGE_CURVE('',#119,#119,#139,.T.);
#100=EDGE_CURVE('',#120,#120,#140,.T.);
#101=EDGE_CURVE('',#121,#121,#141,.T.);
#102=EDGE_CURVE('',#122,#122,#142,.T.);
#103=EDGE_CURVE('',#123,#123,#143,.T.);
#104=EDGE_CURVE('',#124,#124,#144,.T.);
#105=VERTEX_POINT('',#502);
#106=VERTEX_POINT('',#504);
#107=VERTEX_POINT('',#507);
#108=VERTEX_POINT('',#510);
#109=VERTEX_POINT('',#513);
#110=VERTEX_POINT('',#516);
#111=VERTEX_POINT('',#519);
#112=VERTEX_POINT('',#522);
#113=VERTEX_POINT('',#528);
#114=VERTEX_POINT('',#530);
#115=VERTEX_POINT('',#533);
#116=VERTEX_POINT('',#536);
#117=VERTEX_POINT('',#539);
#118=VERTEX_POINT('',#542);
#119=VERTEX_POINT('',#545);
#120=VERTEX_POINT('',#548);
#121=VERTEX_POINT('',#551);
#122=VERTEX_POINT('',#554);
#123=VERTEX_POINT('',#557);
#124=VERTEX_POINT('',#560);
#125=CIRCLE('',#366,7.13101204819863);
#126=CIRCLE('',#367,7.13101204819863);
#127=CIRCLE('',#369,7.5);
#128=CIRCLE('',#371,7.5);
#129=CIRCLE('',#373,10.5);
#130=CIRCLE('',#375,11.5);
#131=CIRCLE('',#377,11.5);
#132=CIRCLE('',#379,10.4000056008768);
#133=CIRCLE('',#384,11.8);
#134=CIRCLE('',#385,11.3);
#135=CIRCLE('',#387,10.569436);
#136=CIRCLE('',#389,9.95);
#137=CIRCLE('',#391,9.95);
#138=CIRCLE('',#393,9.15);
#139=CIRCLE('',#395,7.5);
#140=CIRCLE('',#397,7.5);
#141=CIRCLE('',#399,7.13101204819863);
#142=CIRCLE('',#401,7.13101204819863);
#143=CIRCLE('',#403,10.8);
#144=CIRCLE('',#405,11.3);
#145=EDGE_LOOP('',(#45));
#146=EDGE_LOOP('',(#46));
#147=EDGE_LOOP('',(#47));
#148=EDGE_LOOP('',(#48));
#149=EDGE_LOOP('',(#49));
#150=EDGE_LOOP('',(#50));
#151=EDGE_LOOP('',(#51));
#152=EDGE_LOOP('',(#52));
#153=EDGE_LOOP('',(#53));
#154=EDGE_LOOP('',(#54));
#155=EDGE_LOOP('',(#55));
#156=EDGE_LOOP('',(#56));
#157=EDGE_LOOP('',(#57));
#158=EDGE_LOOP('',(#58));
#159=EDGE_LOOP('',(#59));
#160=EDGE_LOOP('',(#60));
#161=EDGE_LOOP('',(#61));
#162=EDGE_LOOP('',(#62));
#163=EDGE_LOOP('',(#63));
#164=EDGE_LOOP('',(#64));
#165=EDGE_LOOP('',(#65));
#166=EDGE_LOOP('',(#66));
#167=EDGE_LOOP('',(#67));
#168=EDGE_LOOP('',(#68));
#169=EDGE_LOOP('',(#69));
#170=EDGE_LOOP('',(#70));
#171=EDGE_LOOP('',(#71));
#172=EDGE_LOOP('',(#72));
#173=EDGE_LOOP('',(#73));
#174=EDGE_LOOP('',(#74));
#175=EDGE_LOOP('',(#75));
#176=EDGE_LOOP('',(#76));
#177=EDGE_LOOP('',(#77));
#178=EDGE_LOOP('',(#78));
#179=EDGE_LOOP('',(#79));
#180=EDGE_LOOP('',(#80));
#181=EDGE_LOOP('',(#81));
#182=EDGE_LOOP('',(#82));
#183=EDGE_LOOP('',(#83));
#184=EDGE_LOOP('',(#84));
#185=FACE_BOUND('',#145,.T.);
#186=FACE_BOUND('',#146,.T.);
#187=FACE_BOUND('',#147,.T.);
#188=FACE_BOUND('',#148,.T.);
#189=FACE_BOUND('',#149,.T.);
#190=FACE_BOUND('',#150,.T.);
#191=FACE_BOUND('',#151,.T.);
#192=FACE_BOUND('',#152,.T.);
#193=FACE_BOUND('',#153,.T.);
#194=FACE_BOUND('',#154,.T.);
#195=FACE_BOUND('',#155,.T.);
#196=FACE_BOUND('',#156,.T.);
#197=FACE_BOUND('',#157,.T.);
#198=FACE_BOUND('',#158,.T.);
#199=FACE_BOUND('',#159,.T.);
#200=FACE_BOUND('',#160,.T.);
#201=FACE_BOUND('',#161,.T.);
#202=FACE_BOUND('',#162,.T.);
#203=FACE_BOUND('',#163,.T.);
#204=FACE_BOUND('',#164,.T.);
#205=FACE_BOUND('',#165,.T.);
#206=FACE_BOUND('',#166,.T.);
#207=FACE_BOUND('',#167,.T.);
#208=FACE_BOUND('',#168,.T.);
#209=FACE_BOUND('',#169,.T.);
#210=FACE_BOUND('',#170,.T.);
#211=FACE_BOUND('',#171,.T.);
#212=FACE_BOUND('',#172,.T.);
#213=FACE_BOUND('',#173,.T.);
#214=FACE_BOUND('',#174,.T.);
#215=FACE_BOUND('',#175,.T.);
#216=FACE_BOUND('',#176,.T.);
#217=FACE_BOUND('',#177,.T.);
#218=FACE_BOUND('',#178,.T.);
#219=FACE_BOUND('',#179,.T.);
#220=FACE_BOUND('',#180,.T.);
#221=FACE_BOUND('',#181,.T.);
#222=FACE_BOUND('',#182,.T.);
#223=FACE_BOUND('',#183,.T.);
#224=FACE_BOUND('',#184,.T.);
#225=CYLINDRICAL_SURFACE('',#365,7.13101204819863);
#226=CYLINDRICAL_SURFACE('',#370,7.5);
#227=CYLINDRICAL_SURFACE('',#376,11.5);
#228=CYLINDRICAL_SURFACE('',#390,9.95);
#229=CYLINDRICAL_SURFACE('',#396,7.5);
#230=CYLINDRICAL_SURFACE('',#400,7.13101204819863);
#231=CYLINDRICAL_SURFACE('',#406,11.3);
#232=ADVANCED_FACE('',(#185,#186),#225,.T.);
#233=ADVANCED_FACE('',(#187,#188),#37,.F.);
#234=ADVANCED_FACE('',(#189,#190),#226,.T.);
#235=ADVANCED_FACE('',(#191,#192),#38,.F.);
#236=ADVANCED_FACE('',(#193,#194),#33,.T.);
#237=ADVANCED_FACE('',(#195,#196),#227,.T.);
#238=ADVANCED_FACE('',(#197,#198),#34,.T.);
#239=ADVANCED_FACE('',(#199),#39,.F.);
#240=ADVANCED_FACE('',(#200),#40,.T.);
#241=ADVANCED_FACE('',(#201,#202),#18,.T.);
#242=ADVANCED_FACE('',(#203,#204),#19,.T.);
#243=ADVANCED_FACE('',(#205,#206),#20,.T.);
#244=ADVANCED_FACE('',(#207,#208),#228,.T.);
#245=ADVANCED_FACE('',(#209,#210),#35,.T.);
#246=ADVANCED_FACE('',(#211,#212),#41,.F.);
#247=ADVANCED_FACE('',(#213,#214),#229,.T.);
#248=ADVANCED_FACE('',(#215,#216),#42,.F.);
#249=ADVANCED_FACE('',(#217,#218),#230,.T.);
#250=ADVANCED_FACE('',(#219),#43,.F.);
#251=ADVANCED_FACE('',(#220,#221),#36,.T.);
#252=ADVANCED_FACE('',(#222,#223),#231,.T.);
#253=ADVANCED_FACE('',(#224),#44,.F.);
#254=CLOSED_SHELL('',(#232,#233,#234,#235,#236,#237,#238,#239,#240));
#255=CLOSED_SHELL('',(#241,#242,#243,#244,#245,#246,#247,#248,#249,#250,
#251,#252,#253));
#256=STYLED_ITEM('',(#270),#356);
#257=STYLED_ITEM('',(#271),#241);
#258=STYLED_ITEM('',(#272),#242);
#259=STYLED_ITEM('',(#273),#243);
#260=STYLED_ITEM('',(#274),#244);
#261=STYLED_ITEM('',(#275),#245);
#262=STYLED_ITEM('',(#276),#246);
#263=STYLED_ITEM('',(#277),#247);
#264=STYLED_ITEM('',(#278),#248);
#265=STYLED_ITEM('',(#279),#249);
#266=STYLED_ITEM('',(#280),#250);
#267=STYLED_ITEM('',(#281),#251);
#268=STYLED_ITEM('',(#282),#252);
#269=STYLED_ITEM('',(#283),#253);
#270=PRESENTATION_STYLE_ASSIGNMENT((#284));
#271=PRESENTATION_STYLE_ASSIGNMENT((#285));
#272=PRESENTATION_STYLE_ASSIGNMENT((#286));
#273=PRESENTATION_STYLE_ASSIGNMENT((#287));
#274=PRESENTATION_STYLE_ASSIGNMENT((#288));
#275=PRESENTATION_STYLE_ASSIGNMENT((#289));
#276=PRESENTATION_STYLE_ASSIGNMENT((#290));
#277=PRESENTATION_STYLE_ASSIGNMENT((#291));
#278=PRESENTATION_STYLE_ASSIGNMENT((#292));
#279=PRESENTATION_STYLE_ASSIGNMENT((#293));
#280=PRESENTATION_STYLE_ASSIGNMENT((#294));
#281=PRESENTATION_STYLE_ASSIGNMENT((#295));
#282=PRESENTATION_STYLE_ASSIGNMENT((#296));
#283=PRESENTATION_STYLE_ASSIGNMENT((#297));
#284=SURFACE_STYLE_USAGE(.BOTH.,#298);
#285=SURFACE_STYLE_USAGE(.BOTH.,#299);
#286=SURFACE_STYLE_USAGE(.BOTH.,#300);
#287=SURFACE_STYLE_USAGE(.BOTH.,#301);
#288=SURFACE_STYLE_USAGE(.BOTH.,#302);
#289=SURFACE_STYLE_USAGE(.BOTH.,#303);
#290=SURFACE_STYLE_USAGE(.BOTH.,#304);
#291=SURFACE_STYLE_USAGE(.BOTH.,#305);
#292=SURFACE_STYLE_USAGE(.BOTH.,#306);
#293=SURFACE_STYLE_USAGE(.BOTH.,#307);
#294=SURFACE_STYLE_USAGE(.BOTH.,#308);
#295=SURFACE_STYLE_USAGE(.BOTH.,#309);
#296=SURFACE_STYLE_USAGE(.BOTH.,#310);
#297=SURFACE_STYLE_USAGE(.BOTH.,#311);
#298=SURFACE_SIDE_STYLE('',(#312));
#299=SURFACE_SIDE_STYLE('',(#313));
#300=SURFACE_SIDE_STYLE('',(#314));
#301=SURFACE_SIDE_STYLE('',(#315));
#302=SURFACE_SIDE_STYLE('',(#316));
#303=SURFACE_SIDE_STYLE('',(#317));
#304=SURFACE_SIDE_STYLE('',(#318));
#305=SURFACE_SIDE_STYLE('',(#319));
#306=SURFACE_SIDE_STYLE('',(#320));
#307=SURFACE_SIDE_STYLE('',(#321));
#308=SURFACE_SIDE_STYLE('',(#322));
#309=SURFACE_SIDE_STYLE('',(#323));
#310=SURFACE_SIDE_STYLE('',(#324));
#311=SURFACE_SIDE_STYLE('',(#325));
#312=SURFACE_STYLE_FILL_AREA(#326);
#313=SURFACE_STYLE_FILL_AREA(#327);
#314=SURFACE_STYLE_FILL_AREA(#328);
#315=SURFACE_STYLE_FILL_AREA(#329);
#316=SURFACE_STYLE_FILL_AREA(#330);
#317=SURFACE_STYLE_FILL_AREA(#331);
#318=SURFACE_STYLE_FILL_AREA(#332);
#319=SURFACE_STYLE_FILL_AREA(#333);
#320=SURFACE_STYLE_FILL_AREA(#334);
#321=SURFACE_STYLE_FILL_AREA(#335);
#322=SURFACE_STYLE_FILL_AREA(#336);
#323=SURFACE_STYLE_FILL_AREA(#337);
#324=SURFACE_STYLE_FILL_AREA(#338);
#325=SURFACE_STYLE_FILL_AREA(#339);
#326=FILL_AREA_STYLE('',(#340));
#327=FILL_AREA_STYLE('',(#341));
#328=FILL_AREA_STYLE('',(#342));
#329=FILL_AREA_STYLE('',(#343));
#330=FILL_AREA_STYLE('',(#344));
#331=FILL_AREA_STYLE('',(#345));
#332=FILL_AREA_STYLE('',(#346));
#333=FILL_AREA_STYLE('',(#347));
#334=FILL_AREA_STYLE('',(#348));
#335=FILL_AREA_STYLE('',(#349));
#336=FILL_AREA_STYLE('',(#350));
#337=FILL_AREA_STYLE('',(#351));
#338=FILL_AREA_STYLE('',(#352));
#339=FILL_AREA_STYLE('',(#353));
#340=FILL_AREA_STYLE_COLOUR('',#354);
#341=FILL_AREA_STYLE_COLOUR('',#354);
#342=FILL_AREA_STYLE_COLOUR('',#354);
#343=FILL_AREA_STYLE_COLOUR('',#354);
#344=FILL_AREA_STYLE_COLOUR('',#354);
#345=FILL_AREA_STYLE_COLOUR('',#354);
#346=FILL_AREA_STYLE_COLOUR('',#354);
#347=FILL_AREA_STYLE_COLOUR('',#354);
#348=FILL_AREA_STYLE_COLOUR('',#354);
#349=FILL_AREA_STYLE_COLOUR('',#355);
#350=FILL_AREA_STYLE_COLOUR('',#354);
#351=FILL_AREA_STYLE_COLOUR('',#354);
#352=FILL_AREA_STYLE_COLOUR('',#354);
#353=FILL_AREA_STYLE_COLOUR('',#355);
#354=COLOUR_RGB('',0.517647087574005,0.517647087574005,0.517647087574005);
#355=COLOUR_RGB('',0.564705908298492,0.423529446125031,0.188235312700272);
#356=MANIFOLD_SOLID_BREP('',#254);
#357=MANIFOLD_SOLID_BREP('',#255);
#358=SHAPE_DEFINITION_REPRESENTATION(#575,#361);
#359=SHAPE_DEFINITION_REPRESENTATION(#574,#362);
#360=SHAPE_DEFINITION_REPRESENTATION(#577,#363);
#361=SHAPE_REPRESENTATION('28151001',(#364),#566);
#362=SHAPE_REPRESENTATION('28151001',(#364,#382,#408),#565);
#363=SHAPE_REPRESENTATION('28151001_0',(#364),#567);
#364=AXIS2_PLACEMENT_3D('',#499,#409,#410);
#365=AXIS2_PLACEMENT_3D('',#500,#411,#412);
#366=AXIS2_PLACEMENT_3D('',#501,#413,#414);
#367=AXIS2_PLACEMENT_3D('',#503,#415,#416);
#368=AXIS2_PLACEMENT_3D('',#505,#417,#418);
#369=AXIS2_PLACEMENT_3D('',#506,#419,#420);
#370=AXIS2_PLACEMENT_3D('',#508,#421,#422);
#371=AXIS2_PLACEMENT_3D('',#509,#423,#424);
#372=AXIS2_PLACEMENT_3D('',#511,#425,#426);
#373=AXIS2_PLACEMENT_3D('',#512,#427,#428);
#374=AXIS2_PLACEMENT_3D('',#514,#429,#430);
#375=AXIS2_PLACEMENT_3D('',#515,#431,#432);
#376=AXIS2_PLACEMENT_3D('',#517,#433,#434);
#377=AXIS2_PLACEMENT_3D('',#518,#435,#436);
#378=AXIS2_PLACEMENT_3D('',#520,#437,#438);
#379=AXIS2_PLACEMENT_3D('',#521,#439,#440);
#380=AXIS2_PLACEMENT_3D('',#523,#441,#442);
#381=AXIS2_PLACEMENT_3D('',#524,#443,#444);
#382=AXIS2_PLACEMENT_3D('',#525,#445,#446);
#383=AXIS2_PLACEMENT_3D('',#526,#447,#448);
#384=AXIS2_PLACEMENT_3D('',#527,#449,#450);
#385=AXIS2_PLACEMENT_3D('',#529,#451,#452);
#386=AXIS2_PLACEMENT_3D('',#531,#453,#454);
#387=AXIS2_PLACEMENT_3D('',#532,#455,#456);
#388=AXIS2_PLACEMENT_3D('',#534,#457,#458);
#389=AXIS2_PLACEMENT_3D('',#535,#459,#460);
#390=AXIS2_PLACEMENT_3D('',#537,#461,#462);
#391=AXIS2_PLACEMENT_3D('',#538,#463,#464);
#392=AXIS2_PLACEMENT_3D('',#540,#465,#466);
#393=AXIS2_PLACEMENT_3D('',#541,#467,#468);
#394=AXIS2_PLACEMENT_3D('',#543,#469,#470);
#395=AXIS2_PLACEMENT_3D('',#544,#471,#472);
#396=AXIS2_PLACEMENT_3D('',#546,#473,#474);
#397=AXIS2_PLACEMENT_3D('',#547,#475,#476);
#398=AXIS2_PLACEMENT_3D('',#549,#477,#478);
#399=AXIS2_PLACEMENT_3D('',#550,#479,#480);
#400=AXIS2_PLACEMENT_3D('',#552,#481,#482);
#401=AXIS2_PLACEMENT_3D('',#553,#483,#484);
#402=AXIS2_PLACEMENT_3D('',#555,#485,#486);
#403=AXIS2_PLACEMENT_3D('',#556,#487,#488);
#404=AXIS2_PLACEMENT_3D('',#558,#489,#490);
#405=AXIS2_PLACEMENT_3D('',#559,#491,#492);
#406=AXIS2_PLACEMENT_3D('',#561,#493,#494);
#407=AXIS2_PLACEMENT_3D('',#562,#495,#496);
#408=AXIS2_PLACEMENT_3D('',#563,#497,#498);
#409=DIRECTION('',(0.,0.,1.));
#410=DIRECTION('',(1.,0.,0.));
#411=DIRECTION('',(0.,-1.22464679914735E-16,-1.));
#412=DIRECTION('',(-0.923728021347068,0.383049008063238,-4.69099741641213E-17));
#413=DIRECTION('',(0.,-1.22464679914735E-16,-1.));
#414=DIRECTION('',(-0.923728021347068,0.383049008063238,-4.69099741641213E-17));
#415=DIRECTION('',(1.95461800110063E-16,1.22464679914735E-16,1.));
#416=DIRECTION('',(-1.,1.11022302462516E-16,1.95461800110063E-16));
#417=DIRECTION('',(0.,-1.22464679914735E-16,-1.));
#418=DIRECTION('',(-0.923728021347068,0.383049008063238,-4.69099741641213E-17));
#419=DIRECTION('',(0.,-1.22464679914735E-16,-1.));
#420=DIRECTION('',(-0.923728021347068,0.383049008063238,-4.69099741641213E-17));
#421=DIRECTION('',(0.,-1.22464679914735E-16,-1.));
#422=DIRECTION('',(-0.923728021347068,0.383049008063238,-4.69099741641213E-17));
#423=DIRECTION('',(0.,-1.22464679914735E-16,-1.));
#424=DIRECTION('',(-0.923728021347068,0.383049008063238,-4.69099741641213E-17));
#425=DIRECTION('',(0.,-1.22464679914735E-16,-1.));
#426=DIRECTION('',(-0.923728021347068,0.383049008063238,-4.69099741641213E-17));
#427=DIRECTION('',(0.,-1.22464679914735E-16,-1.));
#428=DIRECTION('',(-0.923728021347068,0.383049008063238,-4.69099741641213E-17));
#429=DIRECTION('',(0.,-1.22464679914735E-16,-1.));
#430=DIRECTION('',(-0.923728021347068,0.383049008063238,-4.69099741641213E-17));
#431=DIRECTION('',(0.,-1.22464679914735E-16,-1.));
#432=DIRECTION('',(-0.923728021347068,0.383049008063238,-4.69099741641213E-17));
#433=DIRECTION('',(0.,-1.22464679914735E-16,-1.));
#434=DIRECTION('',(-0.923728021347068,0.383049008063238,-4.69099741641213E-17));
#435=DIRECTION('',(0.,-1.22464679914735E-16,-1.));
#436=DIRECTION('',(-0.923728021347068,0.383049008063238,-4.69099741641213E-17));
#437=DIRECTION('',(0.,-1.22464679914735E-16,-1.));
#438=DIRECTION('',(-0.923728021347068,0.383049008063238,-4.69099741641213E-17));
#439=DIRECTION('',(0.,-1.22464679914735E-16,-1.));
#440=DIRECTION('',(-0.923728021347068,0.383049008063238,-4.69099741641213E-17));
#441=DIRECTION('',(0.,1.22464679914735E-16,1.));
#442=DIRECTION('',(0.923728021347068,-0.383049008063238,4.69099741641213E-17));
#443=DIRECTION('',(1.95461800110063E-16,1.22464679914735E-16,1.));
#444=DIRECTION('',(-1.,1.11022302462516E-16,1.95461800110063E-16));
#445=DIRECTION('',(0.,0.,1.));
#446=DIRECTION('',(1.,0.,0.));
#447=DIRECTION('',(0.,-1.22464679914735E-16,-1.));
#448=DIRECTION('',(-0.923728021347068,0.383049008063238,-4.69099741641213E-17));
#449=DIRECTION('',(0.,-1.22464679914735E-16,-1.));
#450=DIRECTION('',(-0.923728021347068,0.383049008063238,-4.69099741641213E-17));
#451=DIRECTION('',(0.,-1.22464679914735E-16,-1.));
#452=DIRECTION('',(-0.923728021347068,0.383049008063238,-4.69099741641213E-17));
#453=DIRECTION('',(0.,1.22464679914735E-16,1.));
#454=DIRECTION('',(0.923728021347068,-0.383049008063238,4.69099741641213E-17));
#455=DIRECTION('',(0.,-1.22464679914735E-16,-1.));
#456=DIRECTION('',(-0.923728021347068,0.383049008063238,-4.69099741641213E-17));
#457=DIRECTION('',(0.,1.22464679914735E-16,1.));
#458=DIRECTION('',(0.923728021347068,-0.383049008063238,4.69099741641213E-17));
#459=DIRECTION('',(0.,-1.22464679914735E-16,-1.));
#460=DIRECTION('',(-0.923728021347068,0.383049008063238,-4.69099741641213E-17));
#461=DIRECTION('',(0.,-1.22464679914735E-16,-1.));
#462=DIRECTION('',(-0.923728021347068,0.383049008063238,-4.69099741641213E-17));
#463=DIRECTION('',(0.,-1.22464679914735E-16,-1.));
#464=DIRECTION('',(-0.923728021347068,0.383049008063238,-4.69099741641213E-17));
#465=DIRECTION('',(0.,-1.22464679914735E-16,-1.));
#466=DIRECTION('',(-0.923728021347068,0.383049008063238,-4.69099741641213E-17));
#467=DIRECTION('',(0.,-1.22464679914735E-16,-1.));
#468=DIRECTION('',(-0.923728021347068,0.383049008063238,-4.69099741641213E-17));
#469=DIRECTION('',(0.,1.22464679914735E-16,1.));
#470=DIRECTION('',(0.923728021347068,-0.383049008063238,4.69099741641213E-17));
#471=DIRECTION('',(0.,-1.22464679914735E-16,-1.));
#472=DIRECTION('',(-0.923728021347068,0.383049008063238,-4.69099741641213E-17));
#473=DIRECTION('',(0.,-1.22464679914735E-16,-1.));
#474=DIRECTION('',(-0.923728021347068,0.383049008063238,-4.69099741641213E-17));
#475=DIRECTION('',(0.,-1.22464679914735E-16,-1.));
#476=DIRECTION('',(-0.923728021347068,0.383049008063238,-4.69099741641213E-17));
#477=DIRECTION('',(0.,1.22464679914735E-16,1.));
#478=DIRECTION('',(0.923728021347068,-0.383049008063238,4.69099741641213E-17));
#479=DIRECTION('',(0.,-1.22464679914735E-16,-1.));
#480=DIRECTION('',(-0.923728021347068,0.383049008063238,-4.69099741641213E-17));
#481=DIRECTION('',(0.,-1.22464679914735E-16,-1.));
#482=DIRECTION('',(-0.923728021347068,0.383049008063238,-4.69099741641213E-17));
#483=DIRECTION('',(0.,1.22464679914735E-16,1.));
#484=DIRECTION('',(0.383049008063238,0.923728021347068,-1.1312405646254E-16));
#485=DIRECTION('',(0.,-1.22464679914735E-16,-1.));
#486=DIRECTION('',(-0.923728021347068,0.383049008063238,-4.69099741641213E-17));
#487=DIRECTION('',(0.,-1.22464679914735E-16,-1.));
#488=DIRECTION('',(-0.923728021347068,0.383049008063238,-4.69099741641213E-17));
#489=DIRECTION('',(0.,-1.22464679914735E-16,-1.));
#490=DIRECTION('',(-0.923728021347068,0.383049008063238,-4.69099741641213E-17));
#491=DIRECTION('',(0.,-1.22464679914735E-16,-1.));
#492=DIRECTION('',(-0.923728021347068,0.383049008063238,-4.69099741641213E-17));
#493=DIRECTION('',(0.,-1.22464679914735E-16,-1.));
#494=DIRECTION('',(-0.923728021347068,0.383049008063238,-4.69099741641213E-17));
#495=DIRECTION('',(0.,1.22464679914735E-16,1.));
#496=DIRECTION('',(0.923728021347068,-0.383049008063238,4.69099741641213E-17));
#497=DIRECTION('',(0.,0.,1.));
#498=DIRECTION('',(1.,0.,0.));
#499=CARTESIAN_POINT('',(0.,0.,0.));
#500=CARTESIAN_POINT('',(16.75,91.1719557069558,279.600556336098));
#501=CARTESIAN_POINT('',(16.75,91.1719557069557,-15.9628207105138));
#502=CARTESIAN_POINT('',(10.1628843505154,93.9034827985052,-15.9628207105138));
#503=CARTESIAN_POINT('',(16.75,91.1719557069557,32.5371792894862));
#504=CARTESIAN_POINT('',(9.61898795180137,91.1719557069557,32.5371792894862));
#505=CARTESIAN_POINT('',(9.82203983989701,94.04482326743,-15.9628207105138));
#506=CARTESIAN_POINT('',(16.75,91.1719557069557,-15.9628207105138));
#507=CARTESIAN_POINT('',(9.82203983989699,94.04482326743,-15.9628207105138));
#508=CARTESIAN_POINT('',(16.75,91.1719557069558,279.600556336098));
#509=CARTESIAN_POINT('',(16.75,91.1719557069557,-34.9628207105138));
#510=CARTESIAN_POINT('',(9.82203983989699,94.04482326743,-34.9628207105138));
#511=CARTESIAN_POINT('',(7.0508557758558,95.1939702916197,-34.9628207105138));
#512=CARTESIAN_POINT('',(16.75,91.1719557069557,-34.9628207105138));
#513=CARTESIAN_POINT('',(7.05085577585579,95.1939702916197,-34.9628207105138));
#514=CARTESIAN_POINT('',(16.75,91.1719557069557,-35.9628207105138));
#515=CARTESIAN_POINT('',(16.75,91.1719557069557,-35.9628207105138));
#516=CARTESIAN_POINT('',(6.12712775450872,95.5770192996829,-35.9628207105138));
#517=CARTESIAN_POINT('',(16.75,91.1719557069558,279.600556336098));
#518=CARTESIAN_POINT('',(16.75,91.1719557069557,-46.4678327105138));
#519=CARTESIAN_POINT('',(6.12712775450872,95.5770192996829,-46.4678327105138));
#520=CARTESIAN_POINT('',(16.75,91.1719557069557,-46.4678327105138));
#521=CARTESIAN_POINT('',(16.75,91.1719557069557,-47.4628207105138));
#522=CARTESIAN_POINT('',(7.14322340430365,95.1556675362237,-47.4628207105138));
#523=CARTESIAN_POINT('',(7.14322340430363,95.1556675362237,-47.4628207105138));
#524=CARTESIAN_POINT('',(2.08166817117217E-14,91.1719557069557,32.5371792894862));
#525=CARTESIAN_POINT('',(0.,0.,0.));
#526=CARTESIAN_POINT('',(16.75,91.1719557069558,162.600556336099));
#527=CARTESIAN_POINT('',(16.75,91.1719557069558,162.100556336099));
#528=CARTESIAN_POINT('',(5.8500093481046,95.691934002102,162.100556336099));
#529=CARTESIAN_POINT('',(16.75,91.1719557069558,162.600556336099));
#530=CARTESIAN_POINT('',(6.31187335877813,95.5004094980704,162.600556336099));
#531=CARTESIAN_POINT('',(16.75,91.1719557069558,162.100556336099));
#532=CARTESIAN_POINT('',(16.75,91.1719557069557,138.619990336098));
#533=CARTESIAN_POINT('',(6.98671579696549,95.2205676825436,138.619990336098));
#534=CARTESIAN_POINT('',(16.75,91.1719557069557,138.619990336098));
#535=CARTESIAN_POINT('',(16.75,91.1719557069557,138.000556336099));
#536=CARTESIAN_POINT('',(7.55890618759667,94.9832933371849,138.000556336099));
#537=CARTESIAN_POINT('',(16.75,91.1719557069558,219.600556336099));
#538=CARTESIAN_POINT('',(16.75,91.1719557069557,135.600556336098));
#539=CARTESIAN_POINT('',(7.55890618759667,94.9832933371849,135.600556336098));
#540=CARTESIAN_POINT('',(16.75,91.1719557069557,135.600556336098));
#541=CARTESIAN_POINT('',(16.75,91.1719557069557,134.800556336098));
#542=CARTESIAN_POINT('',(8.29788860467433,94.6768541307343,134.800556336098));
#543=CARTESIAN_POINT('',(9.82203983989704,94.04482326743,134.800556336098));
#544=CARTESIAN_POINT('',(16.75,91.1719557069557,134.800556336099));
#545=CARTESIAN_POINT('',(9.82203983989699,94.04482326743,134.800556336099));
#546=CARTESIAN_POINT('',(16.75,91.1719557069558,219.600556336099));
#547=CARTESIAN_POINT('',(16.75,91.1719557069557,134.100556336099));
#548=CARTESIAN_POINT('',(9.82203983989699,94.04482326743,134.100556336099));
#549=CARTESIAN_POINT('',(9.82203983989704,94.04482326743,134.100556336099));
#550=CARTESIAN_POINT('',(16.75,91.1719557069557,134.100556336099));
#551=CARTESIAN_POINT('',(10.1628843505154,93.9034827985052,134.100556336099));
#552=CARTESIAN_POINT('',(16.75,91.1719557069558,219.600556336099));
#553=CARTESIAN_POINT('',(16.75,91.1719557069557,27.5371792894862));
#554=CARTESIAN_POINT('',(19.4815270915495,97.7590713564403,27.5371792894862));
#555=CARTESIAN_POINT('',(6.77373736945165,95.3088849940387,165.600556336099));
#556=CARTESIAN_POINT('',(16.75,91.1719557069558,165.600556336099));
#557=CARTESIAN_POINT('',(6.77373736945167,95.3088849940388,165.600556336099));
#558=CARTESIAN_POINT('',(16.75,91.1719557069558,165.100556336099));
#559=CARTESIAN_POINT('',(16.75,91.1719557069558,165.100556336099));
#560=CARTESIAN_POINT('',(6.31187335877813,95.5004094980704,165.100556336099));
#561=CARTESIAN_POINT('',(16.75,91.1719557069558,219.600556336099));
#562=CARTESIAN_POINT('',(16.75,91.1719557069557,27.5371792894862));
#563=CARTESIAN_POINT('',(0.,0.,0.));
#564=MECHANICAL_DESIGN_GEOMETRIC_PRESENTATION_REPRESENTATION('',(#256,#257,
#258,#259,#260,#261,#262,#263,#264,#265,#266,#267,#268,#269),#565);
#565=(
GEOMETRIC_REPRESENTATION_CONTEXT(3)
GLOBAL_UNCERTAINTY_ASSIGNED_CONTEXT((#568))
GLOBAL_UNIT_ASSIGNED_CONTEXT((#573,#572,#571))
REPRESENTATION_CONTEXT('28151001','TOP_LEVEL_ASSEMBLY_PART')
);
#566=(
GEOMETRIC_REPRESENTATION_CONTEXT(3)
GLOBAL_UNCERTAINTY_ASSIGNED_CONTEXT((#569))
GLOBAL_UNIT_ASSIGNED_CONTEXT((#573,#572,#571))
REPRESENTATION_CONTEXT('28151001','COMPONENT_PART')
);
#567=(
GEOMETRIC_REPRESENTATION_CONTEXT(3)
GLOBAL_UNCERTAINTY_ASSIGNED_CONTEXT((#570))
GLOBAL_UNIT_ASSIGNED_CONTEXT((#573,#572,#571))
REPRESENTATION_CONTEXT('28151001_0','COMPONENT_PART')
);
#568=UNCERTAINTY_MEASURE_WITH_UNIT(LENGTH_MEASURE(0.005),#573,
'DISTANCE_ACCURACY_VALUE','Maximum Tolerance applied to model');
#569=UNCERTAINTY_MEASURE_WITH_UNIT(LENGTH_MEASURE(0.005),#573,
'DISTANCE_ACCURACY_VALUE','Maximum Tolerance applied to model');
#570=UNCERTAINTY_MEASURE_WITH_UNIT(LENGTH_MEASURE(0.005),#573,
'DISTANCE_ACCURACY_VALUE','Maximum Tolerance applied to model');
#571=(
NAMED_UNIT(*)
SI_UNIT($,.STERADIAN.)
SOLID_ANGLE_UNIT()
);
#572=(
NAMED_UNIT(*)
PLANE_ANGLE_UNIT()
SI_UNIT($,.RADIAN.)
);
#573=(
LENGTH_UNIT()
NAMED_UNIT(*)
SI_UNIT(.MILLI.,.METRE.)
);
#574=PRODUCT_DEFINITION_SHAPE('','',#579);
#575=PRODUCT_DEFINITION_SHAPE('','',#580);
#576=PRODUCT_DEFINITION_SHAPE(' ','NAUO PRDDFN',#23);
#577=PRODUCT_DEFINITION_SHAPE('','',#581);
#578=PRODUCT_DEFINITION_SHAPE(' ','NAUO PRDDFN',#24);
#579=PRODUCT_DEFINITION('','',#585,#582);
#580=PRODUCT_DEFINITION('','',#586,#583);
#581=PRODUCT_DEFINITION('','',#587,#584);
#582=PRODUCT_DEFINITION_CONTEXT('',#601,'design');
#583=PRODUCT_DEFINITION_CONTEXT('',#601,'design');
#584=PRODUCT_DEFINITION_CONTEXT('',#601,'design');
#585=PRODUCT_DEFINITION_FORMATION_WITH_SPECIFIED_SOURCE('','',#591,
 .NOT_KNOWN.);
#586=PRODUCT_DEFINITION_FORMATION_WITH_SPECIFIED_SOURCE('','',#592,
 .NOT_KNOWN.);
#587=PRODUCT_DEFINITION_FORMATION_WITH_SPECIFIED_SOURCE('','',#593,
 .NOT_KNOWN.);
#588=PRODUCT_RELATED_PRODUCT_CATEGORY('','',(#591));
#589=PRODUCT_RELATED_PRODUCT_CATEGORY('','',(#592));
#590=PRODUCT_RELATED_PRODUCT_CATEGORY('','',(#593));
#591=PRODUCT('28151001','28151001','28151001',(#597));
#592=PRODUCT('28151001','28151001','28151001',(#598));
#593=PRODUCT('28151001_0','28151001_0','28151001_0',(#599));
#594=PRODUCT_CATEGORY('','');
#595=PRODUCT_CATEGORY('','');
#596=PRODUCT_CATEGORY('','');
#597=PRODUCT_CONTEXT('',#601,'mechanical');
#598=PRODUCT_CONTEXT('',#601,'mechanical');
#599=PRODUCT_CONTEXT('',#601,'mechanical');
#600=APPLICATION_PROTOCOL_DEFINITION('international standard',
'automotive_design',2010,#601);
#601=APPLICATION_CONTEXT(
'core data for automotive mechanical design processes');
ENDSEC;
END-ISO-10303-21;
