ISO-10303-21;
HEADER;
/* Generated by software containing ST-Developer
 * from STEP Tools, Inc. (www.steptools.com) 
 */
/* OPTION: strings as raw bytes, not using required /X/ escapes */

FILE_DESCRIPTION(
/* description */ ('Unknown'),
/* implementation_level */ '2;1');

FILE_NAME(
/* name */ '33555003',
/* time_stamp */ '2022-08-26T14:43:17+02:00',
/* author */ ('Unknown'),
/* organization */ ('GROHE AG'),
/* preprocessor_version */ 'ST-DEVELOPER v16.7',
/* originating_system */ 'DEX',
/* authorisation */ $);

FILE_SCHEMA (('AUTOMOTIVE_DESIGN {1 0 10303 214 3 1 1}'));
ENDSEC;

DATA;
#10=PROPERTY_DEFINITION_REPRESENTATION(#14,#12);
#11=PROPERTY_DEFINITION_REPRESENTATION(#15,#13);
#12=REPRESENTATION('',(#16),#194);
#13=REPRESENTATION('',(#17),#194);
#14=PROPERTY_DEFINITION('pmi validation property','',#209);
#15=PROPERTY_DEFINITION('pmi validation property','',#209);
#16=VALUE_REPRESENTATION_ITEM('number of annotations',COUNT_MEASURE(0.));
#17=VALUE_REPRESENTATION_ITEM('number of views',COUNT_MEASURE(0.));
#18=CONTEXT_DEPENDENT_SHAPE_REPRESENTATION(#28,#211);
#19=CONTEXT_DEPENDENT_SHAPE_REPRESENTATION(#29,#213);
#20=CONTEXT_DEPENDENT_SHAPE_REPRESENTATION(#30,#215);
#21=CONTEXT_DEPENDENT_SHAPE_REPRESENTATION(#31,#217);
#22=CONTEXT_DEPENDENT_SHAPE_REPRESENTATION(#32,#219);
#23=NEXT_ASSEMBLY_USAGE_OCCURRENCE('33555003','33555003','33555003',#220,
#221,'');
#24=NEXT_ASSEMBLY_USAGE_OCCURRENCE('33555003_0','33555003_0',
'33555003_0',#220,#222,'');
#25=NEXT_ASSEMBLY_USAGE_OCCURRENCE('id77','id77','id77',#220,#223,'');
#26=NEXT_ASSEMBLY_USAGE_OCCURRENCE(
'414500038_GEH_EHM_BR_OHM_SHOWER_100143271',
'414500038_GEH_EHM_BR_OHM_SHOWER_100143271',
'414500038_GEH_EHM_BR_OHM_SHOWER_100143271',#220,#224,'');
#27=NEXT_ASSEMBLY_USAGE_OCCURRENCE('NONE','NONE','NONE',#220,#225,'');
#28=(
REPRESENTATION_RELATIONSHIP(' ',' ',#119,#120)
REPRESENTATION_RELATIONSHIP_WITH_TRANSFORMATION(#33)
SHAPE_REPRESENTATION_RELATIONSHIP()
);
#29=(
REPRESENTATION_RELATIONSHIP(' ',' ',#121,#120)
REPRESENTATION_RELATIONSHIP_WITH_TRANSFORMATION(#34)
SHAPE_REPRESENTATION_RELATIONSHIP()
);
#30=(
REPRESENTATION_RELATIONSHIP(' ',' ',#122,#120)
REPRESENTATION_RELATIONSHIP_WITH_TRANSFORMATION(#35)
SHAPE_REPRESENTATION_RELATIONSHIP()
);
#31=(
REPRESENTATION_RELATIONSHIP(' ',' ',#123,#120)
REPRESENTATION_RELATIONSHIP_WITH_TRANSFORMATION(#36)
SHAPE_REPRESENTATION_RELATIONSHIP()
);
#32=(
REPRESENTATION_RELATIONSHIP(' ',' ',#124,#120)
REPRESENTATION_RELATIONSHIP_WITH_TRANSFORMATION(#37)
SHAPE_REPRESENTATION_RELATIONSHIP()
);
#33=ITEM_DEFINED_TRANSFORMATION(' ',' ',#125,#131);
#34=ITEM_DEFINED_TRANSFORMATION(' ',' ',#125,#137);
#35=ITEM_DEFINED_TRANSFORMATION(' ',' ',#125,#138);
#36=ITEM_DEFINED_TRANSFORMATION(' ',' ',#125,#139);
#37=ITEM_DEFINED_TRANSFORMATION(' ',' ',#125,#140);
#38=SHAPE_REPRESENTATION_RELATIONSHIP('','',#119,#40);
#39=SHAPE_REPRESENTATION_RELATIONSHIP('','',#121,#41);
#40=ADVANCED_BREP_SHAPE_REPRESENTATION('',(#111),#195);
#41=ADVANCED_BREP_SHAPE_REPRESENTATION('',(#112),#196);
#42=PLANE('',#129);
#43=PLANE('',#130);
#44=PLANE('',#135);
#45=PLANE('',#136);
#46=ORIENTED_EDGE('',*,*,#54,.T.);
#47=ORIENTED_EDGE('',*,*,#55,.F.);
#48=ORIENTED_EDGE('',*,*,#54,.F.);
#49=ORIENTED_EDGE('',*,*,#55,.T.);
#50=ORIENTED_EDGE('',*,*,#56,.T.);
#51=ORIENTED_EDGE('',*,*,#57,.F.);
#52=ORIENTED_EDGE('',*,*,#56,.F.);
#53=ORIENTED_EDGE('',*,*,#57,.T.);
#54=EDGE_CURVE('',#58,#58,#62,.T.);
#55=EDGE_CURVE('',#59,#59,#63,.T.);
#56=EDGE_CURVE('',#60,#60,#64,.T.);
#57=EDGE_CURVE('',#61,#61,#65,.T.);
#58=VERTEX_POINT('',#176);
#59=VERTEX_POINT('',#178);
#60=VERTEX_POINT('',#184);
#61=VERTEX_POINT('',#186);
#62=CIRCLE('',#127,35.);
#63=CIRCLE('',#128,35.);
#64=CIRCLE('',#133,35.);
#65=CIRCLE('',#134,35.);
#66=EDGE_LOOP('',(#46));
#67=EDGE_LOOP('',(#47));
#68=EDGE_LOOP('',(#48));
#69=EDGE_LOOP('',(#49));
#70=EDGE_LOOP('',(#50));
#71=EDGE_LOOP('',(#51));
#72=EDGE_LOOP('',(#52));
#73=EDGE_LOOP('',(#53));
#74=FACE_BOUND('',#66,.T.);
#75=FACE_BOUND('',#67,.T.);
#76=FACE_BOUND('',#68,.T.);
#77=FACE_BOUND('',#69,.T.);
#78=FACE_BOUND('',#70,.T.);
#79=FACE_BOUND('',#71,.T.);
#80=FACE_BOUND('',#72,.T.);
#81=FACE_BOUND('',#73,.T.);
#82=CYLINDRICAL_SURFACE('',#126,35.);
#83=CYLINDRICAL_SURFACE('',#132,35.);
#84=ADVANCED_FACE('',(#74,#75),#82,.T.);
#85=ADVANCED_FACE('',(#76),#42,.F.);
#86=ADVANCED_FACE('',(#77),#43,.T.);
#87=ADVANCED_FACE('',(#78,#79),#83,.T.);
#88=ADVANCED_FACE('',(#80),#44,.F.);
#89=ADVANCED_FACE('',(#81),#45,.T.);
#90=CLOSED_SHELL('',(#84,#85,#86));
#91=CLOSED_SHELL('',(#87,#88,#89));
#92=STYLED_ITEM('',(#94),#111);
#93=STYLED_ITEM('',(#95),#112);
#94=PRESENTATION_STYLE_ASSIGNMENT((#96));
#95=PRESENTATION_STYLE_ASSIGNMENT((#97));
#96=SURFACE_STYLE_USAGE(.BOTH.,#98);
#97=SURFACE_STYLE_USAGE(.BOTH.,#99);
#98=SURFACE_SIDE_STYLE('',(#104,#100));
#99=SURFACE_SIDE_STYLE('',(#105,#101));
#100=SURFACE_STYLE_RENDERING_WITH_PROPERTIES(.CONSTANT_SHADING.,#110,(#102));
#101=SURFACE_STYLE_RENDERING_WITH_PROPERTIES(.CONSTANT_SHADING.,#110,(#103));
#102=SURFACE_STYLE_TRANSPARENT(0.733333349227905);
#103=SURFACE_STYLE_TRANSPARENT(0.733333349227905);
#104=SURFACE_STYLE_FILL_AREA(#106);
#105=SURFACE_STYLE_FILL_AREA(#107);
#106=FILL_AREA_STYLE('',(#108));
#107=FILL_AREA_STYLE('',(#109));
#108=FILL_AREA_STYLE_COLOUR('',#110);
#109=FILL_AREA_STYLE_COLOUR('',#110);
#110=COLOUR_RGB('',0.0470588281750679,0.0470588281750679,0.0470588281750679);
#111=MANIFOLD_SOLID_BREP('',#90);
#112=MANIFOLD_SOLID_BREP('',#91);
#113=SHAPE_DEFINITION_REPRESENTATION(#210,#119);
#114=SHAPE_DEFINITION_REPRESENTATION(#209,#120);
#115=SHAPE_DEFINITION_REPRESENTATION(#212,#121);
#116=SHAPE_DEFINITION_REPRESENTATION(#214,#122);
#117=SHAPE_DEFINITION_REPRESENTATION(#216,#123);
#118=SHAPE_DEFINITION_REPRESENTATION(#218,#124);
#119=SHAPE_REPRESENTATION('33555003',(#125),#195);
#120=SHAPE_REPRESENTATION('33555003',(#125,#131,#137,#138,#139,#140),#194);
#121=SHAPE_REPRESENTATION('33555003_0',(#125),#196);
#122=SHAPE_REPRESENTATION('id77',(#125),#197);
#123=SHAPE_REPRESENTATION('414500038_GEH_EHM_BR_OHM_SHOWER_100143271',(#125),
#198);
#124=SHAPE_REPRESENTATION('NONE',(#125),#199);
#125=AXIS2_PLACEMENT_3D('',#173,#141,#142);
#126=AXIS2_PLACEMENT_3D('',#174,#143,#144);
#127=AXIS2_PLACEMENT_3D('',#175,#145,#146);
#128=AXIS2_PLACEMENT_3D('',#177,#147,#148);
#129=AXIS2_PLACEMENT_3D('',#179,#149,#150);
#130=AXIS2_PLACEMENT_3D('',#180,#151,#152);
#131=AXIS2_PLACEMENT_3D('',#181,#153,#154);
#132=AXIS2_PLACEMENT_3D('',#182,#155,#156);
#133=AXIS2_PLACEMENT_3D('',#183,#157,#158);
#134=AXIS2_PLACEMENT_3D('',#185,#159,#160);
#135=AXIS2_PLACEMENT_3D('',#187,#161,#162);
#136=AXIS2_PLACEMENT_3D('',#188,#163,#164);
#137=AXIS2_PLACEMENT_3D('',#189,#165,#166);
#138=AXIS2_PLACEMENT_3D('',#190,#167,#168);
#139=AXIS2_PLACEMENT_3D('',#191,#169,#170);
#140=AXIS2_PLACEMENT_3D('',#192,#171,#172);
#141=DIRECTION('',(0.,0.,1.));
#142=DIRECTION('',(1.,0.,0.));
#143=DIRECTION('',(-1.,4.79229290476996E-17,1.06343601503391E-16));
#144=DIRECTION('',(-1.06343601503391E-16,-2.22044604925032E-16,-1.));
#145=DIRECTION('',(-1.,4.79229290476996E-17,1.06343601503391E-16));
#146=DIRECTION('',(1.06343601503391E-16,2.22044604925032E-16,1.));
#147=DIRECTION('',(-1.,4.79229290476996E-17,1.06343601503391E-16));
#148=DIRECTION('',(1.06343601503391E-16,2.22044604925032E-16,1.));
#149=DIRECTION('',(-1.,4.79229290476996E-17,1.06343601503391E-16));
#150=DIRECTION('',(-1.06343601503391E-16,-2.22044604925032E-16,-1.));
#151=DIRECTION('',(-1.,4.79229290476996E-17,1.06343601503391E-16));
#152=DIRECTION('',(-1.06343601503391E-16,-2.22044604925032E-16,-1.));
#153=DIRECTION('',(0.,0.,1.));
#154=DIRECTION('',(1.,0.,0.));
#155=DIRECTION('',(-1.,-2.3188356575273E-17,7.82340878703705E-17));
#156=DIRECTION('',(-7.82340878703705E-17,-1.83697019872103E-16,-1.));
#157=DIRECTION('',(-1.,-2.3188356575273E-17,7.82340878703705E-17));
#158=DIRECTION('',(7.82340878703705E-17,1.83697019872103E-16,1.));
#159=DIRECTION('',(-1.,-2.3188356575273E-17,7.82340878703705E-17));
#160=DIRECTION('',(7.82340878703705E-17,1.83697019872103E-16,1.));
#161=DIRECTION('',(-1.,-2.3188356575273E-17,7.82340878703705E-17));
#162=DIRECTION('',(-7.82340878703705E-17,-1.83697019872103E-16,-1.));
#163=DIRECTION('',(-1.,-2.3188356575273E-17,7.82340878703705E-17));
#164=DIRECTION('',(-7.82340878703705E-17,-1.83697019872103E-16,-1.));
#165=DIRECTION('',(0.,0.,1.));
#166=DIRECTION('',(1.,0.,0.));
#167=DIRECTION('',(0.,0.,1.));
#168=DIRECTION('',(1.,0.,0.));
#169=DIRECTION('',(0.,0.,1.));
#170=DIRECTION('',(1.,0.,0.));
#171=DIRECTION('',(0.,0.,1.));
#172=DIRECTION('',(1.,0.,0.));
#173=CARTESIAN_POINT('',(0.,0.,0.));
#174=CARTESIAN_POINT('',(-18.3096432466017,-75.0000000112251,-17.5));
#175=CARTESIAN_POINT('',(-18.3096432466017,-75.0000000112251,-17.5));
#176=CARTESIAN_POINT('',(-18.3096432466017,-75.0000000112251,17.5));
#177=CARTESIAN_POINT('',(-44.3096432466017,-75.0000000112251,-17.5));
#178=CARTESIAN_POINT('',(-44.3096432466017,-75.0000000112251,17.5));
#179=CARTESIAN_POINT('',(-18.3096432466017,-75.0000000112251,-17.5));
#180=CARTESIAN_POINT('',(-44.3096432466017,-75.0000000112251,-17.5));
#181=CARTESIAN_POINT('',(0.,0.,0.));
#182=CARTESIAN_POINT('',(-18.3096432466016,75.0000000112251,-17.5));
#183=CARTESIAN_POINT('',(-18.3096432466016,75.0000000112251,-17.5));
#184=CARTESIAN_POINT('',(-18.3096432466016,75.0000000112251,17.5));
#185=CARTESIAN_POINT('',(-44.3096432466017,75.0000000112251,-17.5));
#186=CARTESIAN_POINT('',(-44.3096432466017,75.0000000112251,17.5));
#187=CARTESIAN_POINT('',(-18.3096432466016,75.0000000112251,-17.5));
#188=CARTESIAN_POINT('',(-44.3096432466017,75.0000000112251,-17.5));
#189=CARTESIAN_POINT('',(0.,0.,0.));
#190=CARTESIAN_POINT('',(0.,0.,0.));
#191=CARTESIAN_POINT('',(0.,0.,0.));
#192=CARTESIAN_POINT('',(0.,0.,0.));
#193=MECHANICAL_DESIGN_GEOMETRIC_PRESENTATION_REPRESENTATION('',(#92,#93),
#194);
#194=(
GEOMETRIC_REPRESENTATION_CONTEXT(3)
GLOBAL_UNCERTAINTY_ASSIGNED_CONTEXT((#200))
GLOBAL_UNIT_ASSIGNED_CONTEXT((#208,#207,#206))
REPRESENTATION_CONTEXT('33555003','TOP_LEVEL_ASSEMBLY_PART')
);
#195=(
GEOMETRIC_REPRESENTATION_CONTEXT(3)
GLOBAL_UNCERTAINTY_ASSIGNED_CONTEXT((#201))
GLOBAL_UNIT_ASSIGNED_CONTEXT((#208,#207,#206))
REPRESENTATION_CONTEXT('33555003','COMPONENT_PART')
);
#196=(
GEOMETRIC_REPRESENTATION_CONTEXT(3)
GLOBAL_UNCERTAINTY_ASSIGNED_CONTEXT((#202))
GLOBAL_UNIT_ASSIGNED_CONTEXT((#208,#207,#206))
REPRESENTATION_CONTEXT('33555003_0','COMPONENT_PART')
);
#197=(
GEOMETRIC_REPRESENTATION_CONTEXT(3)
GLOBAL_UNCERTAINTY_ASSIGNED_CONTEXT((#203))
GLOBAL_UNIT_ASSIGNED_CONTEXT((#208,#207,#206))
REPRESENTATION_CONTEXT('id77','COMPONENT_PART')
);
#198=(
GEOMETRIC_REPRESENTATION_CONTEXT(3)
GLOBAL_UNCERTAINTY_ASSIGNED_CONTEXT((#204))
GLOBAL_UNIT_ASSIGNED_CONTEXT((#208,#207,#206))
REPRESENTATION_CONTEXT('414500038_GEH_EHM_BR_OHM_SHOWER_100143271',
'COMPONENT_PART')
);
#199=(
GEOMETRIC_REPRESENTATION_CONTEXT(3)
GLOBAL_UNCERTAINTY_ASSIGNED_CONTEXT((#205))
GLOBAL_UNIT_ASSIGNED_CONTEXT((#208,#207,#206))
REPRESENTATION_CONTEXT('NONE','COMPONENT_PART')
);
#200=UNCERTAINTY_MEASURE_WITH_UNIT(LENGTH_MEASURE(0.005),#208,
'DISTANCE_ACCURACY_VALUE','Maximum Tolerance applied to model');
#201=UNCERTAINTY_MEASURE_WITH_UNIT(LENGTH_MEASURE(0.005),#208,
'DISTANCE_ACCURACY_VALUE','Maximum Tolerance applied to model');
#202=UNCERTAINTY_MEASURE_WITH_UNIT(LENGTH_MEASURE(0.005),#208,
'DISTANCE_ACCURACY_VALUE','Maximum Tolerance applied to model');
#203=UNCERTAINTY_MEASURE_WITH_UNIT(LENGTH_MEASURE(0.005),#208,
'DISTANCE_ACCURACY_VALUE','Maximum Tolerance applied to model');
#204=UNCERTAINTY_MEASURE_WITH_UNIT(LENGTH_MEASURE(0.005),#208,
'DISTANCE_ACCURACY_VALUE','Maximum Tolerance applied to model');
#205=UNCERTAINTY_MEASURE_WITH_UNIT(LENGTH_MEASURE(0.005),#208,
'DISTANCE_ACCURACY_VALUE','Maximum Tolerance applied to model');
#206=(
NAMED_UNIT(*)
SI_UNIT($,.STERADIAN.)
SOLID_ANGLE_UNIT()
);
#207=(
NAMED_UNIT(*)
PLANE_ANGLE_UNIT()
SI_UNIT($,.RADIAN.)
);
#208=(
LENGTH_UNIT()
NAMED_UNIT(*)
SI_UNIT(.MILLI.,.METRE.)
);
#209=PRODUCT_DEFINITION_SHAPE('','',#220);
#210=PRODUCT_DEFINITION_SHAPE('','',#221);
#211=PRODUCT_DEFINITION_SHAPE(' ','NAUO PRDDFN',#23);
#212=PRODUCT_DEFINITION_SHAPE('','',#222);
#213=PRODUCT_DEFINITION_SHAPE(' ','NAUO PRDDFN',#24);
#214=PRODUCT_DEFINITION_SHAPE('','',#223);
#215=PRODUCT_DEFINITION_SHAPE(' ','NAUO PRDDFN',#25);
#216=PRODUCT_DEFINITION_SHAPE('','',#224);
#217=PRODUCT_DEFINITION_SHAPE(' ','NAUO PRDDFN',#26);
#218=PRODUCT_DEFINITION_SHAPE('','',#225);
#219=PRODUCT_DEFINITION_SHAPE(' ','NAUO PRDDFN',#27);
#220=PRODUCT_DEFINITION('','',#232,#226);
#221=PRODUCT_DEFINITION('','',#233,#227);
#222=PRODUCT_DEFINITION('','',#234,#228);
#223=PRODUCT_DEFINITION('','',#235,#229);
#224=PRODUCT_DEFINITION('','',#236,#230);
#225=PRODUCT_DEFINITION('','',#237,#231);
#226=PRODUCT_DEFINITION_CONTEXT('',#263,'design');
#227=PRODUCT_DEFINITION_CONTEXT('',#263,'design');
#228=PRODUCT_DEFINITION_CONTEXT('',#263,'design');
#229=PRODUCT_DEFINITION_CONTEXT('',#263,'design');
#230=PRODUCT_DEFINITION_CONTEXT('',#263,'design');
#231=PRODUCT_DEFINITION_CONTEXT('',#263,'design');
#232=PRODUCT_DEFINITION_FORMATION_WITH_SPECIFIED_SOURCE('','',#244,
 .NOT_KNOWN.);
#233=PRODUCT_DEFINITION_FORMATION_WITH_SPECIFIED_SOURCE('','',#245,
 .NOT_KNOWN.);
#234=PRODUCT_DEFINITION_FORMATION_WITH_SPECIFIED_SOURCE('','',#246,
 .NOT_KNOWN.);
#235=PRODUCT_DEFINITION_FORMATION_WITH_SPECIFIED_SOURCE('','',#247,
 .NOT_KNOWN.);
#236=PRODUCT_DEFINITION_FORMATION_WITH_SPECIFIED_SOURCE('','',#248,
 .NOT_KNOWN.);
#237=PRODUCT_DEFINITION_FORMATION_WITH_SPECIFIED_SOURCE('','',#249,
 .NOT_KNOWN.);
#238=PRODUCT_RELATED_PRODUCT_CATEGORY('','',(#244));
#239=PRODUCT_RELATED_PRODUCT_CATEGORY('','',(#245));
#240=PRODUCT_RELATED_PRODUCT_CATEGORY('','',(#246));
#241=PRODUCT_RELATED_PRODUCT_CATEGORY('','',(#247));
#242=PRODUCT_RELATED_PRODUCT_CATEGORY('','',(#248));
#243=PRODUCT_RELATED_PRODUCT_CATEGORY('','',(#249));
#244=PRODUCT('33555003','33555003','33555003',(#256));
#245=PRODUCT('33555003','33555003','33555003',(#257));
#246=PRODUCT('33555003_0','33555003_0','33555003_0',(#258));
#247=PRODUCT('id77','id77','id77',(#259));
#248=PRODUCT('414500038_GEH_EHM_BR_OHM_SHOWER_100143271',
'414500038_GEH_EHM_BR_OHM_SHOWER_100143271',
'414500038_GEH_EHM_BR_OHM_SHOWER_100143271',(#260));
#249=PRODUCT('NONE','NONE','NONE',(#261));
#250=PRODUCT_CATEGORY('','');
#251=PRODUCT_CATEGORY('','');
#252=PRODUCT_CATEGORY('','');
#253=PRODUCT_CATEGORY('','');
#254=PRODUCT_CATEGORY('','');
#255=PRODUCT_CATEGORY('','');
#256=PRODUCT_CONTEXT('',#263,'mechanical');
#257=PRODUCT_CONTEXT('',#263,'mechanical');
#258=PRODUCT_CONTEXT('',#263,'mechanical');
#259=PRODUCT_CONTEXT('',#263,'mechanical');
#260=PRODUCT_CONTEXT('',#263,'mechanical');
#261=PRODUCT_CONTEXT('',#263,'mechanical');
#262=APPLICATION_PROTOCOL_DEFINITION('international standard',
'automotive_design',2010,#263);
#263=APPLICATION_CONTEXT(
'core data for automotive mechanical design processes');
ENDSEC;
END-ISO-10303-21;
