ISO-10303-21;
HEADER;
/* Generated by software containing ST-Developer
 * from STEP Tools, Inc. (www.steptools.com) 
 */
/* OPTION: strings as raw bytes, not using required /X/ escapes */

FILE_DESCRIPTION(
/* description */ ('Unknown'),
/* implementation_level */ '2;1');

FILE_NAME(
/* name */ '26677000',
/* time_stamp */ '2022-08-26T12:24:29+02:00',
/* author */ ('Unknown'),
/* organization */ ('GROHE AG'),
/* preprocessor_version */ 'ST-DEVELOPER v16.7',
/* originating_system */ 'DEX',
/* authorisation */ $);

FILE_SCHEMA (('AUTOMOTIVE_DESIGN {1 0 10303 214 3 1 1}'));
ENDSEC;

DATA;
#10=PROPERTY_DEFINITION_REPRESENTATION(#14,#12);
#11=PROPERTY_DEFINITION_REPRESENTATION(#15,#13);
#12=REPRESENTATION('',(#16),#203);
#13=REPRESENTATION('',(#17),#203);
#14=PROPERTY_DEFINITION('pmi validation property','',#228);
#15=PROPERTY_DEFINITION('pmi validation property','',#228);
#16=VALUE_REPRESENTATION_ITEM('number of annotations',COUNT_MEASURE(0.));
#17=VALUE_REPRESENTATION_ITEM('number of views',COUNT_MEASURE(0.));
#18=CONTEXT_DEPENDENT_SHAPE_REPRESENTATION(#38,#230);
#19=CONTEXT_DEPENDENT_SHAPE_REPRESENTATION(#39,#232);
#20=CONTEXT_DEPENDENT_SHAPE_REPRESENTATION(#40,#234);
#21=CONTEXT_DEPENDENT_SHAPE_REPRESENTATION(#41,#236);
#22=CONTEXT_DEPENDENT_SHAPE_REPRESENTATION(#42,#238);
#23=CONTEXT_DEPENDENT_SHAPE_REPRESENTATION(#43,#240);
#24=CONTEXT_DEPENDENT_SHAPE_REPRESENTATION(#44,#242);
#25=CONTEXT_DEPENDENT_SHAPE_REPRESENTATION(#45,#244);
#26=CONTEXT_DEPENDENT_SHAPE_REPRESENTATION(#46,#246);
#27=CONTEXT_DEPENDENT_SHAPE_REPRESENTATION(#47,#248);
#28=NEXT_ASSEMBLY_USAGE_OCCURRENCE('26677000','26677000','26677000',#249,
#250,'');
#29=NEXT_ASSEMBLY_USAGE_OCCURRENCE('id45','id45','id45',#249,#251,'');
#30=NEXT_ASSEMBLY_USAGE_OCCURRENCE('081107 GTM1000C Handles Update02',
'081107 GTM1000C Handles Update02','081107 GTM1000C Handles Update02',#249,
#252,'');
#31=NEXT_ASSEMBLY_USAGE_OCCURRENCE(
'414048031_STRAHLBILD_SPRAY_FORM_100112971',
'414048031_STRAHLBILD_SPRAY_FORM_100112971',
'414048031_STRAHLBILD_SPRAY_FORM_100112971',#249,#253,'');
#32=NEXT_ASSEMBLY_USAGE_OCCURRENCE('A4285913_DIY_THM_Griff_Body_090831',
'A4285913_DIY_THM_Griff_Body_090831',
'A4285913_DIY_THM_Griff_Body_090831',#249,#254,'');
#33=NEXT_ASSEMBLY_USAGE_OCCURRENCE('DF_REVOL','DF_REVOL','DF_REVOL',#249,
#255,'');
#34=NEXT_ASSEMBLY_USAGE_OCCURRENCE('extrude#','extrude#','extrude#',#249,
#256,'');
#35=NEXT_ASSEMBLY_USAGE_OCCURRENCE('Housing','Housing','Housing',#249,#257,
'');
#36=NEXT_ASSEMBLY_USAGE_OCCURRENCE('rail_sur','rail_sur','rail_sur',#249,
#258,'');
#37=NEXT_ASSEMBLY_USAGE_OCCURRENCE('trim_sur','trim_sur','trim_sur',#249,
#259,'');
#38=(
REPRESENTATION_RELATIONSHIP(' ',' ',#116,#117)
REPRESENTATION_RELATIONSHIP_WITH_TRANSFORMATION(#48)
SHAPE_REPRESENTATION_RELATIONSHIP()
);
#39=(
REPRESENTATION_RELATIONSHIP(' ',' ',#118,#117)
REPRESENTATION_RELATIONSHIP_WITH_TRANSFORMATION(#49)
SHAPE_REPRESENTATION_RELATIONSHIP()
);
#40=(
REPRESENTATION_RELATIONSHIP(' ',' ',#119,#117)
REPRESENTATION_RELATIONSHIP_WITH_TRANSFORMATION(#50)
SHAPE_REPRESENTATION_RELATIONSHIP()
);
#41=(
REPRESENTATION_RELATIONSHIP(' ',' ',#120,#117)
REPRESENTATION_RELATIONSHIP_WITH_TRANSFORMATION(#51)
SHAPE_REPRESENTATION_RELATIONSHIP()
);
#42=(
REPRESENTATION_RELATIONSHIP(' ',' ',#121,#117)
REPRESENTATION_RELATIONSHIP_WITH_TRANSFORMATION(#52)
SHAPE_REPRESENTATION_RELATIONSHIP()
);
#43=(
REPRESENTATION_RELATIONSHIP(' ',' ',#122,#117)
REPRESENTATION_RELATIONSHIP_WITH_TRANSFORMATION(#53)
SHAPE_REPRESENTATION_RELATIONSHIP()
);
#44=(
REPRESENTATION_RELATIONSHIP(' ',' ',#123,#117)
REPRESENTATION_RELATIONSHIP_WITH_TRANSFORMATION(#54)
SHAPE_REPRESENTATION_RELATIONSHIP()
);
#45=(
REPRESENTATION_RELATIONSHIP(' ',' ',#124,#117)
REPRESENTATION_RELATIONSHIP_WITH_TRANSFORMATION(#55)
SHAPE_REPRESENTATION_RELATIONSHIP()
);
#46=(
REPRESENTATION_RELATIONSHIP(' ',' ',#125,#117)
REPRESENTATION_RELATIONSHIP_WITH_TRANSFORMATION(#56)
SHAPE_REPRESENTATION_RELATIONSHIP()
);
#47=(
REPRESENTATION_RELATIONSHIP(' ',' ',#126,#117)
REPRESENTATION_RELATIONSHIP_WITH_TRANSFORMATION(#57)
SHAPE_REPRESENTATION_RELATIONSHIP()
);
#48=ITEM_DEFINED_TRANSFORMATION(' ',' ',#127,#135);
#49=ITEM_DEFINED_TRANSFORMATION(' ',' ',#127,#136);
#50=ITEM_DEFINED_TRANSFORMATION(' ',' ',#127,#137);
#51=ITEM_DEFINED_TRANSFORMATION(' ',' ',#127,#138);
#52=ITEM_DEFINED_TRANSFORMATION(' ',' ',#127,#139);
#53=ITEM_DEFINED_TRANSFORMATION(' ',' ',#127,#140);
#54=ITEM_DEFINED_TRANSFORMATION(' ',' ',#127,#141);
#55=ITEM_DEFINED_TRANSFORMATION(' ',' ',#127,#142);
#56=ITEM_DEFINED_TRANSFORMATION(' ',' ',#127,#143);
#57=ITEM_DEFINED_TRANSFORMATION(' ',' ',#127,#144);
#58=SHAPE_REPRESENTATION_RELATIONSHIP('','',#116,#59);
#59=ADVANCED_BREP_SHAPE_REPRESENTATION('',(#104),#204);
#60=TOROIDAL_SURFACE('',#134,15.35,0.3);
#61=SPHERICAL_SURFACE('',#132,125.);
#62=PLANE('',#131);
#63=ORIENTED_EDGE('',*,*,#69,.T.);
#64=ORIENTED_EDGE('',*,*,#70,.T.);
#65=ORIENTED_EDGE('',*,*,#70,.F.);
#66=ORIENTED_EDGE('',*,*,#71,.T.);
#67=ORIENTED_EDGE('',*,*,#69,.F.);
#68=ORIENTED_EDGE('',*,*,#71,.F.);
#69=EDGE_CURVE('',#72,#72,#75,.T.);
#70=EDGE_CURVE('',#73,#73,#76,.T.);
#71=EDGE_CURVE('',#74,#74,#77,.F.);
#72=VERTEX_POINT('',#184);
#73=VERTEX_POINT('',#186);
#74=VERTEX_POINT('',#190);
#75=CIRCLE('',#129,15.65);
#76=CIRCLE('',#130,15.65);
#77=CIRCLE('',#133,15.3869286287089);
#78=EDGE_LOOP('',(#63));
#79=EDGE_LOOP('',(#64));
#80=EDGE_LOOP('',(#65));
#81=EDGE_LOOP('',(#66));
#82=EDGE_LOOP('',(#67));
#83=EDGE_LOOP('',(#68));
#84=FACE_BOUND('',#78,.T.);
#85=FACE_BOUND('',#79,.T.);
#86=FACE_BOUND('',#80,.T.);
#87=FACE_BOUND('',#81,.T.);
#88=FACE_BOUND('',#82,.T.);
#89=FACE_BOUND('',#83,.T.);
#90=CYLINDRICAL_SURFACE('',#128,15.65);
#91=ADVANCED_FACE('',(#84,#85),#90,.T.);
#92=ADVANCED_FACE('',(#86),#62,.F.);
#93=ADVANCED_FACE('',(#87),#61,.T.);
#94=ADVANCED_FACE('',(#88,#89),#60,.T.);
#95=CLOSED_SHELL('',(#91,#92,#93,#94));
#96=STYLED_ITEM('',(#97),#104);
#97=PRESENTATION_STYLE_ASSIGNMENT((#98));
#98=SURFACE_STYLE_USAGE(.BOTH.,#99);
#99=SURFACE_SIDE_STYLE('',(#100));
#100=SURFACE_STYLE_FILL_AREA(#101);
#101=FILL_AREA_STYLE('',(#102));
#102=FILL_AREA_STYLE_COLOUR('',#103);
#103=COLOUR_RGB('',0.282352954149246,0.282352954149246,0.282352954149246);
#104=MANIFOLD_SOLID_BREP('',#95);
#105=SHAPE_DEFINITION_REPRESENTATION(#229,#116);
#106=SHAPE_DEFINITION_REPRESENTATION(#228,#117);
#107=SHAPE_DEFINITION_REPRESENTATION(#231,#118);
#108=SHAPE_DEFINITION_REPRESENTATION(#233,#119);
#109=SHAPE_DEFINITION_REPRESENTATION(#235,#120);
#110=SHAPE_DEFINITION_REPRESENTATION(#237,#121);
#111=SHAPE_DEFINITION_REPRESENTATION(#239,#122);
#112=SHAPE_DEFINITION_REPRESENTATION(#241,#123);
#113=SHAPE_DEFINITION_REPRESENTATION(#243,#124);
#114=SHAPE_DEFINITION_REPRESENTATION(#245,#125);
#115=SHAPE_DEFINITION_REPRESENTATION(#247,#126);
#116=SHAPE_REPRESENTATION('26677000',(#127),#204);
#117=SHAPE_REPRESENTATION('26677000',(#127,#135,#136,#137,#138,#139,#140,
#141,#142,#143,#144),#203);
#118=SHAPE_REPRESENTATION('id45',(#127),#205);
#119=SHAPE_REPRESENTATION('081107 GTM1000C Handles Update02',(#127),#206);
#120=SHAPE_REPRESENTATION('414048031_STRAHLBILD_SPRAY_FORM_100112971',(#127),
#207);
#121=SHAPE_REPRESENTATION('A4285913_DIY_THM_Griff_Body_090831',(#127),#208);
#122=SHAPE_REPRESENTATION('DF_REVOL',(#127),#209);
#123=SHAPE_REPRESENTATION('extrude#',(#127),#210);
#124=SHAPE_REPRESENTATION('Housing',(#127),#211);
#125=SHAPE_REPRESENTATION('rail_sur',(#127),#212);
#126=SHAPE_REPRESENTATION('trim_sur',(#127),#213);
#127=AXIS2_PLACEMENT_3D('',#181,#145,#146);
#128=AXIS2_PLACEMENT_3D('',#182,#147,#148);
#129=AXIS2_PLACEMENT_3D('',#183,#149,#150);
#130=AXIS2_PLACEMENT_3D('',#185,#151,#152);
#131=AXIS2_PLACEMENT_3D('',#187,#153,#154);
#132=AXIS2_PLACEMENT_3D('',#188,#155,#156);
#133=AXIS2_PLACEMENT_3D('',#189,#157,#158);
#134=AXIS2_PLACEMENT_3D('',#191,#159,#160);
#135=AXIS2_PLACEMENT_3D('',#192,#161,#162);
#136=AXIS2_PLACEMENT_3D('',#193,#163,#164);
#137=AXIS2_PLACEMENT_3D('',#194,#165,#166);
#138=AXIS2_PLACEMENT_3D('',#195,#167,#168);
#139=AXIS2_PLACEMENT_3D('',#196,#169,#170);
#140=AXIS2_PLACEMENT_3D('',#197,#171,#172);
#141=AXIS2_PLACEMENT_3D('',#198,#173,#174);
#142=AXIS2_PLACEMENT_3D('',#199,#175,#176);
#143=AXIS2_PLACEMENT_3D('',#200,#177,#178);
#144=AXIS2_PLACEMENT_3D('',#201,#179,#180);
#145=DIRECTION('',(0.,0.,1.));
#146=DIRECTION('',(1.,0.,0.));
#147=DIRECTION('',(1.,1.17496709775895E-14,5.8548270309372E-31));
#148=DIRECTION('',(-1.17496709775895E-14,1.,-4.65817071177828E-45));
#149=DIRECTION('',(-1.,-1.17496709775895E-14,-5.8548270309372E-31));
#150=DIRECTION('',(1.17496709775895E-14,-1.,4.65817071177828E-45));
#151=DIRECTION('',(1.,1.17496709775895E-14,5.8548270309372E-31));
#152=DIRECTION('',(-1.17496709775895E-14,1.,-4.65817071177828E-45));
#153=DIRECTION('',(1.,1.17496709775895E-14,5.8548270309372E-31));
#154=DIRECTION('',(-1.17496709775895E-14,1.,-4.65817071177828E-45));
#155=DIRECTION('',(1.,1.17496709775895E-14,-6.12303176911183E-17));
#156=DIRECTION('',(6.12303176911181E-17,1.11022302462516E-16,1.));
#157=DIRECTION('',(-1.,-1.17496709775895E-14,-5.8548270309372E-31));
#158=DIRECTION('',(1.17496709775895E-14,-1.,4.65817071177828E-45));
#159=DIRECTION('',(-1.,-1.17496709775895E-14,-5.8548270309372E-31));
#160=DIRECTION('',(1.17496709775895E-14,-1.,4.65817071177828E-45));
#161=DIRECTION('',(0.,0.,1.));
#162=DIRECTION('',(1.,0.,0.));
#163=DIRECTION('',(0.,0.,1.));
#164=DIRECTION('',(1.,0.,0.));
#165=DIRECTION('',(0.,0.,1.));
#166=DIRECTION('',(1.,0.,0.));
#167=DIRECTION('',(0.,0.,1.));
#168=DIRECTION('',(1.,0.,0.));
#169=DIRECTION('',(0.,0.,1.));
#170=DIRECTION('',(1.,0.,0.));
#171=DIRECTION('',(0.,0.,1.));
#172=DIRECTION('',(1.,0.,0.));
#173=DIRECTION('',(0.,0.,1.));
#174=DIRECTION('',(1.,0.,0.));
#175=DIRECTION('',(0.,0.,1.));
#176=DIRECTION('',(1.,0.,0.));
#177=DIRECTION('',(0.,0.,1.));
#178=DIRECTION('',(1.,0.,0.));
#179=DIRECTION('',(0.,0.,1.));
#180=DIRECTION('',(1.,0.,0.));
#181=CARTESIAN_POINT('',(0.,0.,0.));
#182=CARTESIAN_POINT('',(28.3,3.33814274829726E-13,990.65));
#183=CARTESIAN_POINT('',(17.0516363528176,2.01649702939054E-13,990.65));
#184=CARTESIAN_POINT('',(17.0516363528178,-15.6499999999998,990.65));
#185=CARTESIAN_POINT('',(-64.,-7.50680356401784E-13,990.65));
#186=CARTESIAN_POINT('',(-64.0000000000002,15.6499999999993,990.65));
#187=CARTESIAN_POINT('',(-64.,-7.48942857368246E-13,1006.3));
#188=CARTESIAN_POINT('',(-106.7,-1.25239130714486E-12,990.65));
#189=CARTESIAN_POINT('',(17.349354804348,2.05147796788494E-13,990.65));
#190=CARTESIAN_POINT('',(17.3493548043482,-15.3869286287087,990.65));
#191=CARTESIAN_POINT('',(17.0516363528176,2.01649702939054E-13,990.65));
#192=CARTESIAN_POINT('',(0.,0.,0.));
#193=CARTESIAN_POINT('',(0.,0.,0.));
#194=CARTESIAN_POINT('',(0.,0.,0.));
#195=CARTESIAN_POINT('',(0.,0.,0.));
#196=CARTESIAN_POINT('',(0.,0.,0.));
#197=CARTESIAN_POINT('',(0.,0.,0.));
#198=CARTESIAN_POINT('',(0.,0.,0.));
#199=CARTESIAN_POINT('',(0.,0.,0.));
#200=CARTESIAN_POINT('',(0.,0.,0.));
#201=CARTESIAN_POINT('',(0.,0.,0.));
#202=MECHANICAL_DESIGN_GEOMETRIC_PRESENTATION_REPRESENTATION('',(#96),#203);
#203=(
GEOMETRIC_REPRESENTATION_CONTEXT(3)
GLOBAL_UNCERTAINTY_ASSIGNED_CONTEXT((#214))
GLOBAL_UNIT_ASSIGNED_CONTEXT((#227,#226,#225))
REPRESENTATION_CONTEXT('26677000','TOP_LEVEL_ASSEMBLY_PART')
);
#204=(
GEOMETRIC_REPRESENTATION_CONTEXT(3)
GLOBAL_UNCERTAINTY_ASSIGNED_CONTEXT((#215))
GLOBAL_UNIT_ASSIGNED_CONTEXT((#227,#226,#225))
REPRESENTATION_CONTEXT('26677000','COMPONENT_PART')
);
#205=(
GEOMETRIC_REPRESENTATION_CONTEXT(3)
GLOBAL_UNCERTAINTY_ASSIGNED_CONTEXT((#216))
GLOBAL_UNIT_ASSIGNED_CONTEXT((#227,#226,#225))
REPRESENTATION_CONTEXT('id45','COMPONENT_PART')
);
#206=(
GEOMETRIC_REPRESENTATION_CONTEXT(3)
GLOBAL_UNCERTAINTY_ASSIGNED_CONTEXT((#217))
GLOBAL_UNIT_ASSIGNED_CONTEXT((#227,#226,#225))
REPRESENTATION_CONTEXT('081107 GTM1000C Handles Update02',
'COMPONENT_PART')
);
#207=(
GEOMETRIC_REPRESENTATION_CONTEXT(3)
GLOBAL_UNCERTAINTY_ASSIGNED_CONTEXT((#218))
GLOBAL_UNIT_ASSIGNED_CONTEXT((#227,#226,#225))
REPRESENTATION_CONTEXT('414048031_STRAHLBILD_SPRAY_FORM_100112971',
'COMPONENT_PART')
);
#208=(
GEOMETRIC_REPRESENTATION_CONTEXT(3)
GLOBAL_UNCERTAINTY_ASSIGNED_CONTEXT((#219))
GLOBAL_UNIT_ASSIGNED_CONTEXT((#227,#226,#225))
REPRESENTATION_CONTEXT('A4285913_DIY_THM_Griff_Body_090831',
'COMPONENT_PART')
);
#209=(
GEOMETRIC_REPRESENTATION_CONTEXT(3)
GLOBAL_UNCERTAINTY_ASSIGNED_CONTEXT((#220))
GLOBAL_UNIT_ASSIGNED_CONTEXT((#227,#226,#225))
REPRESENTATION_CONTEXT('DF_REVOL','COMPONENT_PART')
);
#210=(
GEOMETRIC_REPRESENTATION_CONTEXT(3)
GLOBAL_UNCERTAINTY_ASSIGNED_CONTEXT((#221))
GLOBAL_UNIT_ASSIGNED_CONTEXT((#227,#226,#225))
REPRESENTATION_CONTEXT('extrude#','COMPONENT_PART')
);
#211=(
GEOMETRIC_REPRESENTATION_CONTEXT(3)
GLOBAL_UNCERTAINTY_ASSIGNED_CONTEXT((#222))
GLOBAL_UNIT_ASSIGNED_CONTEXT((#227,#226,#225))
REPRESENTATION_CONTEXT('Housing','COMPONENT_PART')
);
#212=(
GEOMETRIC_REPRESENTATION_CONTEXT(3)
GLOBAL_UNCERTAINTY_ASSIGNED_CONTEXT((#223))
GLOBAL_UNIT_ASSIGNED_CONTEXT((#227,#226,#225))
REPRESENTATION_CONTEXT('rail_sur','COMPONENT_PART')
);
#213=(
GEOMETRIC_REPRESENTATION_CONTEXT(3)
GLOBAL_UNCERTAINTY_ASSIGNED_CONTEXT((#224))
GLOBAL_UNIT_ASSIGNED_CONTEXT((#227,#226,#225))
REPRESENTATION_CONTEXT('trim_sur','COMPONENT_PART')
);
#214=UNCERTAINTY_MEASURE_WITH_UNIT(LENGTH_MEASURE(0.005),#227,
'DISTANCE_ACCURACY_VALUE','Maximum Tolerance applied to model');
#215=UNCERTAINTY_MEASURE_WITH_UNIT(LENGTH_MEASURE(0.005),#227,
'DISTANCE_ACCURACY_VALUE','Maximum Tolerance applied to model');
#216=UNCERTAINTY_MEASURE_WITH_UNIT(LENGTH_MEASURE(0.005),#227,
'DISTANCE_ACCURACY_VALUE','Maximum Tolerance applied to model');
#217=UNCERTAINTY_MEASURE_WITH_UNIT(LENGTH_MEASURE(0.005),#227,
'DISTANCE_ACCURACY_VALUE','Maximum Tolerance applied to model');
#218=UNCERTAINTY_MEASURE_WITH_UNIT(LENGTH_MEASURE(0.005),#227,
'DISTANCE_ACCURACY_VALUE','Maximum Tolerance applied to model');
#219=UNCERTAINTY_MEASURE_WITH_UNIT(LENGTH_MEASURE(0.005),#227,
'DISTANCE_ACCURACY_VALUE','Maximum Tolerance applied to model');
#220=UNCERTAINTY_MEASURE_WITH_UNIT(LENGTH_MEASURE(0.005),#227,
'DISTANCE_ACCURACY_VALUE','Maximum Tolerance applied to model');
#221=UNCERTAINTY_MEASURE_WITH_UNIT(LENGTH_MEASURE(0.005),#227,
'DISTANCE_ACCURACY_VALUE','Maximum Tolerance applied to model');
#222=UNCERTAINTY_MEASURE_WITH_UNIT(LENGTH_MEASURE(0.005),#227,
'DISTANCE_ACCURACY_VALUE','Maximum Tolerance applied to model');
#223=UNCERTAINTY_MEASURE_WITH_UNIT(LENGTH_MEASURE(0.005),#227,
'DISTANCE_ACCURACY_VALUE','Maximum Tolerance applied to model');
#224=UNCERTAINTY_MEASURE_WITH_UNIT(LENGTH_MEASURE(0.005),#227,
'DISTANCE_ACCURACY_VALUE','Maximum Tolerance applied to model');
#225=(
NAMED_UNIT(*)
SI_UNIT($,.STERADIAN.)
SOLID_ANGLE_UNIT()
);
#226=(
NAMED_UNIT(*)
PLANE_ANGLE_UNIT()
SI_UNIT($,.RADIAN.)
);
#227=(
LENGTH_UNIT()
NAMED_UNIT(*)
SI_UNIT(.MILLI.,.METRE.)
);
#228=PRODUCT_DEFINITION_SHAPE('','',#249);
#229=PRODUCT_DEFINITION_SHAPE('','',#250);
#230=PRODUCT_DEFINITION_SHAPE(' ','NAUO PRDDFN',#28);
#231=PRODUCT_DEFINITION_SHAPE('','',#251);
#232=PRODUCT_DEFINITION_SHAPE(' ','NAUO PRDDFN',#29);
#233=PRODUCT_DEFINITION_SHAPE('','',#252);
#234=PRODUCT_DEFINITION_SHAPE(' ','NAUO PRDDFN',#30);
#235=PRODUCT_DEFINITION_SHAPE('','',#253);
#236=PRODUCT_DEFINITION_SHAPE(' ','NAUO PRDDFN',#31);
#237=PRODUCT_DEFINITION_SHAPE('','',#254);
#238=PRODUCT_DEFINITION_SHAPE(' ','NAUO PRDDFN',#32);
#239=PRODUCT_DEFINITION_SHAPE('','',#255);
#240=PRODUCT_DEFINITION_SHAPE(' ','NAUO PRDDFN',#33);
#241=PRODUCT_DEFINITION_SHAPE('','',#256);
#242=PRODUCT_DEFINITION_SHAPE(' ','NAUO PRDDFN',#34);
#243=PRODUCT_DEFINITION_SHAPE('','',#257);
#244=PRODUCT_DEFINITION_SHAPE(' ','NAUO PRDDFN',#35);
#245=PRODUCT_DEFINITION_SHAPE('','',#258);
#246=PRODUCT_DEFINITION_SHAPE(' ','NAUO PRDDFN',#36);
#247=PRODUCT_DEFINITION_SHAPE('','',#259);
#248=PRODUCT_DEFINITION_SHAPE(' ','NAUO PRDDFN',#37);
#249=PRODUCT_DEFINITION('','',#271,#260);
#250=PRODUCT_DEFINITION('','',#272,#261);
#251=PRODUCT_DEFINITION('','',#273,#262);
#252=PRODUCT_DEFINITION('','',#274,#263);
#253=PRODUCT_DEFINITION('','',#275,#264);
#254=PRODUCT_DEFINITION('','',#276,#265);
#255=PRODUCT_DEFINITION('','',#277,#266);
#256=PRODUCT_DEFINITION('','',#278,#267);
#257=PRODUCT_DEFINITION('','',#279,#268);
#258=PRODUCT_DEFINITION('','',#280,#269);
#259=PRODUCT_DEFINITION('','',#281,#270);
#260=PRODUCT_DEFINITION_CONTEXT('',#327,'design');
#261=PRODUCT_DEFINITION_CONTEXT('',#327,'design');
#262=PRODUCT_DEFINITION_CONTEXT('',#327,'design');
#263=PRODUCT_DEFINITION_CONTEXT('',#327,'design');
#264=PRODUCT_DEFINITION_CONTEXT('',#327,'design');
#265=PRODUCT_DEFINITION_CONTEXT('',#327,'design');
#266=PRODUCT_DEFINITION_CONTEXT('',#327,'design');
#267=PRODUCT_DEFINITION_CONTEXT('',#327,'design');
#268=PRODUCT_DEFINITION_CONTEXT('',#327,'design');
#269=PRODUCT_DEFINITION_CONTEXT('',#327,'design');
#270=PRODUCT_DEFINITION_CONTEXT('',#327,'design');
#271=PRODUCT_DEFINITION_FORMATION_WITH_SPECIFIED_SOURCE('','',#293,
 .NOT_KNOWN.);
#272=PRODUCT_DEFINITION_FORMATION_WITH_SPECIFIED_SOURCE('','',#294,
 .NOT_KNOWN.);
#273=PRODUCT_DEFINITION_FORMATION_WITH_SPECIFIED_SOURCE('','',#295,
 .NOT_KNOWN.);
#274=PRODUCT_DEFINITION_FORMATION_WITH_SPECIFIED_SOURCE('','',#296,
 .NOT_KNOWN.);
#275=PRODUCT_DEFINITION_FORMATION_WITH_SPECIFIED_SOURCE('','',#297,
 .NOT_KNOWN.);
#276=PRODUCT_DEFINITION_FORMATION_WITH_SPECIFIED_SOURCE('','',#298,
 .NOT_KNOWN.);
#277=PRODUCT_DEFINITION_FORMATION_WITH_SPECIFIED_SOURCE('','',#299,
 .NOT_KNOWN.);
#278=PRODUCT_DEFINITION_FORMATION_WITH_SPECIFIED_SOURCE('','',#300,
 .NOT_KNOWN.);
#279=PRODUCT_DEFINITION_FORMATION_WITH_SPECIFIED_SOURCE('','',#301,
 .NOT_KNOWN.);
#280=PRODUCT_DEFINITION_FORMATION_WITH_SPECIFIED_SOURCE('','',#302,
 .NOT_KNOWN.);
#281=PRODUCT_DEFINITION_FORMATION_WITH_SPECIFIED_SOURCE('','',#303,
 .NOT_KNOWN.);
#282=PRODUCT_RELATED_PRODUCT_CATEGORY('','',(#293));
#283=PRODUCT_RELATED_PRODUCT_CATEGORY('','',(#294));
#284=PRODUCT_RELATED_PRODUCT_CATEGORY('','',(#295));
#285=PRODUCT_RELATED_PRODUCT_CATEGORY('','',(#296));
#286=PRODUCT_RELATED_PRODUCT_CATEGORY('','',(#297));
#287=PRODUCT_RELATED_PRODUCT_CATEGORY('','',(#298));
#288=PRODUCT_RELATED_PRODUCT_CATEGORY('','',(#299));
#289=PRODUCT_RELATED_PRODUCT_CATEGORY('','',(#300));
#290=PRODUCT_RELATED_PRODUCT_CATEGORY('','',(#301));
#291=PRODUCT_RELATED_PRODUCT_CATEGORY('','',(#302));
#292=PRODUCT_RELATED_PRODUCT_CATEGORY('','',(#303));
#293=PRODUCT('26677000','26677000','26677000',(#315));
#294=PRODUCT('26677000','26677000','26677000',(#316));
#295=PRODUCT('id45','id45','id45',(#317));
#296=PRODUCT('081107 GTM1000C Handles Update02',
'081107 GTM1000C Handles Update02','081107 GTM1000C Handles Update02',(#318));
#297=PRODUCT('414048031_STRAHLBILD_SPRAY_FORM_100112971',
'414048031_STRAHLBILD_SPRAY_FORM_100112971',
'414048031_STRAHLBILD_SPRAY_FORM_100112971',(#319));
#298=PRODUCT('A4285913_DIY_THM_Griff_Body_090831',
'A4285913_DIY_THM_Griff_Body_090831',
'A4285913_DIY_THM_Griff_Body_090831',(#320));
#299=PRODUCT('DF_REVOL','DF_REVOL','DF_REVOL',(#321));
#300=PRODUCT('extrude#','extrude#','extrude#',(#322));
#301=PRODUCT('Housing','Housing','Housing',(#323));
#302=PRODUCT('rail_sur','rail_sur','rail_sur',(#324));
#303=PRODUCT('trim_sur','trim_sur','trim_sur',(#325));
#304=PRODUCT_CATEGORY('','');
#305=PRODUCT_CATEGORY('','');
#306=PRODUCT_CATEGORY('','');
#307=PRODUCT_CATEGORY('','');
#308=PRODUCT_CATEGORY('','');
#309=PRODUCT_CATEGORY('','');
#310=PRODUCT_CATEGORY('','');
#311=PRODUCT_CATEGORY('','');
#312=PRODUCT_CATEGORY('','');
#313=PRODUCT_CATEGORY('','');
#314=PRODUCT_CATEGORY('','');
#315=PRODUCT_CONTEXT('',#327,'mechanical');
#316=PRODUCT_CONTEXT('',#327,'mechanical');
#317=PRODUCT_CONTEXT('',#327,'mechanical');
#318=PRODUCT_CONTEXT('',#327,'mechanical');
#319=PRODUCT_CONTEXT('',#327,'mechanical');
#320=PRODUCT_CONTEXT('',#327,'mechanical');
#321=PRODUCT_CONTEXT('',#327,'mechanical');
#322=PRODUCT_CONTEXT('',#327,'mechanical');
#323=PRODUCT_CONTEXT('',#327,'mechanical');
#324=PRODUCT_CONTEXT('',#327,'mechanical');
#325=PRODUCT_CONTEXT('',#327,'mechanical');
#326=APPLICATION_PROTOCOL_DEFINITION('international standard',
'automotive_design',2010,#327);
#327=APPLICATION_CONTEXT(
'core data for automotive mechanical design processes');
ENDSEC;
END-ISO-10303-21;
