ISO-10303-21;
HEADER;
/* Generated by software containing ST-Developer
 * from STEP Tools, Inc. (www.steptools.com) 
 */
/* OPTION: strings as raw bytes, not using required /X/ escapes */

FILE_DESCRIPTION(
/* description */ ('Unknown'),
/* implementation_level */ '2;1');

FILE_NAME(
/* name */ '28417000',
/* time_stamp */ '2022-09-10T04:54:23+02:00',
/* author */ ('Unknown'),
/* organization */ ('GROHE AG'),
/* preprocessor_version */ 'ST-DEVELOPER v16.7',
/* originating_system */ 'DEX',
/* authorisation */ $);

FILE_SCHEMA (('TECHNICAL_DATA_PACKAGING','AUTOMOTIVE_DESIGN {1 0 10303 214 3 1 1}'));
ENDSEC;

DATA;
#10=PROPERTY_DEFINITION_REPRESENTATION(#14,#12);
#11=PROPERTY_DEFINITION_REPRESENTATION(#15,#13);
#12=REPRESENTATION('',(#16),#413);
#13=REPRESENTATION('',(#17),#413);
#14=PROPERTY_DEFINITION('pmi validation property','',#420);
#15=PROPERTY_DEFINITION('pmi validation property','',#420);
#16=VALUE_REPRESENTATION_ITEM('number of annotations',COUNT_MEASURE(0.));
#17=VALUE_REPRESENTATION_ITEM('number of views',COUNT_MEASURE(0.));
#18=CONTEXT_DEPENDENT_SHAPE_REPRESENTATION(#20,#422);
#19=NEXT_ASSEMBLY_USAGE_OCCURRENCE('28417000','28417000','28417000',#423,
#424,'');
#20=(
REPRESENTATION_RELATIONSHIP(' ',' ',#236,#237)
REPRESENTATION_RELATIONSHIP_WITH_TRANSFORMATION(#21)
SHAPE_REPRESENTATION_RELATIONSHIP()
);
#21=ITEM_DEFINED_TRANSFORMATION(' ',' ',#238,#276);
#22=SHAPE_REPRESENTATION_RELATIONSHIP('','',#236,#23);
#23=ADVANCED_BREP_SHAPE_REPRESENTATION('',(#233),#414);
#24=CONICAL_SURFACE('',#263,11.3,0.785398163397507);
#25=CONICAL_SURFACE('',#265,11.8,0.0523598639532015);
#26=CONICAL_SURFACE('',#267,10.5694359999999,0.785399777771891);
#27=TOROIDAL_SURFACE('',#250,10.5,1.);
#28=TOROIDAL_SURFACE('',#254,10.5,1.00000000000003);
#29=TOROIDAL_SURFACE('',#259,10.8,0.5);
#30=TOROIDAL_SURFACE('',#271,9.15,0.800000000000023);
#31=CYLINDRICAL_SURFACE('',#242,7.);
#32=CYLINDRICAL_SURFACE('',#246,7.5);
#33=CYLINDRICAL_SURFACE('',#252,11.5);
#34=CYLINDRICAL_SURFACE('',#261,11.3);
#35=CYLINDRICAL_SURFACE('',#269,9.95);
#36=CYLINDRICAL_SURFACE('',#275,7.4999999999999);
#37=ORIENTED_EDGE('',*,*,#73,.F.);
#38=ORIENTED_EDGE('',*,*,#74,.T.);
#39=ORIENTED_EDGE('',*,*,#75,.F.);
#40=ORIENTED_EDGE('',*,*,#73,.T.);
#41=ORIENTED_EDGE('',*,*,#76,.F.);
#42=ORIENTED_EDGE('',*,*,#75,.T.);
#43=ORIENTED_EDGE('',*,*,#77,.F.);
#44=ORIENTED_EDGE('',*,*,#76,.T.);
#45=ORIENTED_EDGE('',*,*,#78,.F.);
#46=ORIENTED_EDGE('',*,*,#77,.T.);
#47=ORIENTED_EDGE('',*,*,#79,.F.);
#48=ORIENTED_EDGE('',*,*,#78,.T.);
#49=ORIENTED_EDGE('',*,*,#80,.F.);
#50=ORIENTED_EDGE('',*,*,#79,.T.);
#51=ORIENTED_EDGE('',*,*,#81,.F.);
#52=ORIENTED_EDGE('',*,*,#80,.T.);
#53=ORIENTED_EDGE('',*,*,#81,.T.);
#54=ORIENTED_EDGE('',*,*,#82,.F.);
#55=ORIENTED_EDGE('',*,*,#83,.F.);
#56=ORIENTED_EDGE('',*,*,#82,.T.);
#57=ORIENTED_EDGE('',*,*,#84,.F.);
#58=ORIENTED_EDGE('',*,*,#83,.T.);
#59=ORIENTED_EDGE('',*,*,#85,.F.);
#60=ORIENTED_EDGE('',*,*,#84,.T.);
#61=ORIENTED_EDGE('',*,*,#86,.F.);
#62=ORIENTED_EDGE('',*,*,#85,.T.);
#63=ORIENTED_EDGE('',*,*,#87,.F.);
#64=ORIENTED_EDGE('',*,*,#86,.T.);
#65=ORIENTED_EDGE('',*,*,#88,.F.);
#66=ORIENTED_EDGE('',*,*,#87,.T.);
#67=ORIENTED_EDGE('',*,*,#89,.F.);
#68=ORIENTED_EDGE('',*,*,#88,.T.);
#69=ORIENTED_EDGE('',*,*,#90,.F.);
#70=ORIENTED_EDGE('',*,*,#89,.T.);
#71=ORIENTED_EDGE('',*,*,#74,.F.);
#72=ORIENTED_EDGE('',*,*,#90,.T.);
#73=EDGE_CURVE('',#91,#91,#109,.T.);
#74=EDGE_CURVE('',#92,#92,#110,.T.);
#75=EDGE_CURVE('',#93,#93,#111,.T.);
#76=EDGE_CURVE('',#94,#94,#112,.T.);
#77=EDGE_CURVE('',#95,#95,#113,.T.);
#78=EDGE_CURVE('',#96,#96,#114,.T.);
#79=EDGE_CURVE('',#97,#97,#115,.T.);
#80=EDGE_CURVE('',#98,#98,#116,.T.);
#81=EDGE_CURVE('',#99,#99,#117,.T.);
#82=EDGE_CURVE('',#100,#100,#118,.T.);
#83=EDGE_CURVE('',#101,#101,#119,.T.);
#84=EDGE_CURVE('',#102,#102,#120,.T.);
#85=EDGE_CURVE('',#103,#103,#121,.T.);
#86=EDGE_CURVE('',#104,#104,#122,.T.);
#87=EDGE_CURVE('',#105,#105,#123,.T.);
#88=EDGE_CURVE('',#106,#106,#124,.T.);
#89=EDGE_CURVE('',#107,#107,#125,.T.);
#90=EDGE_CURVE('',#108,#108,#126,.T.);
#91=VERTEX_POINT('',#358);
#92=VERTEX_POINT('',#360);
#93=VERTEX_POINT('',#363);
#94=VERTEX_POINT('',#366);
#95=VERTEX_POINT('',#369);
#96=VERTEX_POINT('',#372);
#97=VERTEX_POINT('',#375);
#98=VERTEX_POINT('',#378);
#99=VERTEX_POINT('',#381);
#100=VERTEX_POINT('',#385);
#101=VERTEX_POINT('',#388);
#102=VERTEX_POINT('',#391);
#103=VERTEX_POINT('',#394);
#104=VERTEX_POINT('',#397);
#105=VERTEX_POINT('',#400);
#106=VERTEX_POINT('',#403);
#107=VERTEX_POINT('',#406);
#108=VERTEX_POINT('',#409);
#109=CIRCLE('',#240,7.);
#110=CIRCLE('',#241,7.4999999999999);
#111=CIRCLE('',#243,7.);
#112=CIRCLE('',#245,7.5);
#113=CIRCLE('',#247,7.5);
#114=CIRCLE('',#249,10.5);
#115=CIRCLE('',#251,11.5);
#116=CIRCLE('',#253,11.5);
#117=CIRCLE('',#255,10.4000056008768);
#118=CIRCLE('',#258,10.8);
#119=CIRCLE('',#260,11.3);
#120=CIRCLE('',#262,11.3);
#121=CIRCLE('',#264,11.8);
#122=CIRCLE('',#266,10.5694359999999);
#123=CIRCLE('',#268,9.95);
#124=CIRCLE('',#270,9.95);
#125=CIRCLE('',#272,9.15);
#126=CIRCLE('',#274,7.4999999999999);
#127=EDGE_LOOP('',(#37));
#128=EDGE_LOOP('',(#38));
#129=EDGE_LOOP('',(#39));
#130=EDGE_LOOP('',(#40));
#131=EDGE_LOOP('',(#41));
#132=EDGE_LOOP('',(#42));
#133=EDGE_LOOP('',(#43));
#134=EDGE_LOOP('',(#44));
#135=EDGE_LOOP('',(#45));
#136=EDGE_LOOP('',(#46));
#137=EDGE_LOOP('',(#47));
#138=EDGE_LOOP('',(#48));
#139=EDGE_LOOP('',(#49));
#140=EDGE_LOOP('',(#50));
#141=EDGE_LOOP('',(#51));
#142=EDGE_LOOP('',(#52));
#143=EDGE_LOOP('',(#53));
#144=EDGE_LOOP('',(#54));
#145=EDGE_LOOP('',(#55));
#146=EDGE_LOOP('',(#56));
#147=EDGE_LOOP('',(#57));
#148=EDGE_LOOP('',(#58));
#149=EDGE_LOOP('',(#59));
#150=EDGE_LOOP('',(#60));
#151=EDGE_LOOP('',(#61));
#152=EDGE_LOOP('',(#62));
#153=EDGE_LOOP('',(#63));
#154=EDGE_LOOP('',(#64));
#155=EDGE_LOOP('',(#65));
#156=EDGE_LOOP('',(#66));
#157=EDGE_LOOP('',(#67));
#158=EDGE_LOOP('',(#68));
#159=EDGE_LOOP('',(#69));
#160=EDGE_LOOP('',(#70));
#161=EDGE_LOOP('',(#71));
#162=EDGE_LOOP('',(#72));
#163=FACE_BOUND('',#127,.T.);
#164=FACE_BOUND('',#128,.T.);
#165=FACE_BOUND('',#129,.T.);
#166=FACE_BOUND('',#130,.T.);
#167=FACE_BOUND('',#131,.T.);
#168=FACE_BOUND('',#132,.T.);
#169=FACE_BOUND('',#133,.T.);
#170=FACE_BOUND('',#134,.T.);
#171=FACE_BOUND('',#135,.T.);
#172=FACE_BOUND('',#136,.T.);
#173=FACE_BOUND('',#137,.T.);
#174=FACE_BOUND('',#138,.T.);
#175=FACE_BOUND('',#139,.T.);
#176=FACE_BOUND('',#140,.T.);
#177=FACE_BOUND('',#141,.T.);
#178=FACE_BOUND('',#142,.T.);
#179=FACE_BOUND('',#143,.T.);
#180=FACE_BOUND('',#144,.T.);
#181=FACE_BOUND('',#145,.T.);
#182=FACE_BOUND('',#146,.T.);
#183=FACE_BOUND('',#147,.T.);
#184=FACE_BOUND('',#148,.T.);
#185=FACE_BOUND('',#149,.T.);
#186=FACE_BOUND('',#150,.T.);
#187=FACE_BOUND('',#151,.T.);
#188=FACE_BOUND('',#152,.T.);
#189=FACE_BOUND('',#153,.T.);
#190=FACE_BOUND('',#154,.T.);
#191=FACE_BOUND('',#155,.T.);
#192=FACE_BOUND('',#156,.T.);
#193=FACE_BOUND('',#157,.T.);
#194=FACE_BOUND('',#158,.T.);
#195=FACE_BOUND('',#159,.T.);
#196=FACE_BOUND('',#160,.T.);
#197=FACE_BOUND('',#161,.T.);
#198=FACE_BOUND('',#162,.T.);
#199=PLANE('',#239);
#200=PLANE('',#244);
#201=PLANE('',#248);
#202=PLANE('',#256);
#203=PLANE('',#257);
#204=PLANE('',#273);
#205=ADVANCED_FACE('',(#163,#164),#199,.F.);
#206=ADVANCED_FACE('',(#165,#166),#31,.T.);
#207=ADVANCED_FACE('',(#167,#168),#200,.F.);
#208=ADVANCED_FACE('',(#169,#170),#32,.T.);
#209=ADVANCED_FACE('',(#171,#172),#201,.F.);
#210=ADVANCED_FACE('',(#173,#174),#27,.T.);
#211=ADVANCED_FACE('',(#175,#176),#33,.T.);
#212=ADVANCED_FACE('',(#177,#178),#28,.T.);
#213=ADVANCED_FACE('',(#179),#202,.F.);
#214=ADVANCED_FACE('',(#180),#203,.F.);
#215=ADVANCED_FACE('',(#181,#182),#29,.T.);
#216=ADVANCED_FACE('',(#183,#184),#34,.T.);
#217=ADVANCED_FACE('',(#185,#186),#24,.T.);
#218=ADVANCED_FACE('',(#187,#188),#25,.T.);
#219=ADVANCED_FACE('',(#189,#190),#26,.T.);
#220=ADVANCED_FACE('',(#191,#192),#35,.T.);
#221=ADVANCED_FACE('',(#193,#194),#30,.T.);
#222=ADVANCED_FACE('',(#195,#196),#204,.F.);
#223=ADVANCED_FACE('',(#197,#198),#36,.T.);
#224=CLOSED_SHELL('',(#205,#206,#207,#208,#209,#210,#211,#212,#213,#214,
#215,#216,#217,#218,#219,#220,#221,#222,#223));
#225=STYLED_ITEM('',(#226),#233);
#226=PRESENTATION_STYLE_ASSIGNMENT((#227));
#227=SURFACE_STYLE_USAGE(.BOTH.,#228);
#228=SURFACE_SIDE_STYLE('',(#229));
#229=SURFACE_STYLE_FILL_AREA(#230);
#230=FILL_AREA_STYLE('',(#231));
#231=FILL_AREA_STYLE_COLOUR('',#232);
#232=COLOUR_RGB('',0.517647087574005,0.517647087574005,0.517647087574005);
#233=MANIFOLD_SOLID_BREP('',#224);
#234=SHAPE_DEFINITION_REPRESENTATION(#421,#236);
#235=SHAPE_DEFINITION_REPRESENTATION(#420,#237);
#236=SHAPE_REPRESENTATION('28417000',(#238),#414);
#237=SHAPE_REPRESENTATION('28417000',(#238,#276),#413);
#238=AXIS2_PLACEMENT_3D('',#355,#277,#278);
#239=AXIS2_PLACEMENT_3D('',#356,#279,#280);
#240=AXIS2_PLACEMENT_3D('',#357,#281,#282);
#241=AXIS2_PLACEMENT_3D('',#359,#283,#284);
#242=AXIS2_PLACEMENT_3D('',#361,#285,#286);
#243=AXIS2_PLACEMENT_3D('',#362,#287,#288);
#244=AXIS2_PLACEMENT_3D('',#364,#289,#290);
#245=AXIS2_PLACEMENT_3D('',#365,#291,#292);
#246=AXIS2_PLACEMENT_3D('',#367,#293,#294);
#247=AXIS2_PLACEMENT_3D('',#368,#295,#296);
#248=AXIS2_PLACEMENT_3D('',#370,#297,#298);
#249=AXIS2_PLACEMENT_3D('',#371,#299,#300);
#250=AXIS2_PLACEMENT_3D('',#373,#301,#302);
#251=AXIS2_PLACEMENT_3D('',#374,#303,#304);
#252=AXIS2_PLACEMENT_3D('',#376,#305,#306);
#253=AXIS2_PLACEMENT_3D('',#377,#307,#308);
#254=AXIS2_PLACEMENT_3D('',#379,#309,#310);
#255=AXIS2_PLACEMENT_3D('',#380,#311,#312);
#256=AXIS2_PLACEMENT_3D('',#382,#313,#314);
#257=AXIS2_PLACEMENT_3D('',#383,#315,#316);
#258=AXIS2_PLACEMENT_3D('',#384,#317,#318);
#259=AXIS2_PLACEMENT_3D('',#386,#319,#320);
#260=AXIS2_PLACEMENT_3D('',#387,#321,#322);
#261=AXIS2_PLACEMENT_3D('',#389,#323,#324);
#262=AXIS2_PLACEMENT_3D('',#390,#325,#326);
#263=AXIS2_PLACEMENT_3D('',#392,#327,#328);
#264=AXIS2_PLACEMENT_3D('',#393,#329,#330);
#265=AXIS2_PLACEMENT_3D('',#395,#331,#332);
#266=AXIS2_PLACEMENT_3D('',#396,#333,#334);
#267=AXIS2_PLACEMENT_3D('',#398,#335,#336);
#268=AXIS2_PLACEMENT_3D('',#399,#337,#338);
#269=AXIS2_PLACEMENT_3D('',#401,#339,#340);
#270=AXIS2_PLACEMENT_3D('',#402,#341,#342);
#271=AXIS2_PLACEMENT_3D('',#404,#343,#344);
#272=AXIS2_PLACEMENT_3D('',#405,#345,#346);
#273=AXIS2_PLACEMENT_3D('',#407,#347,#348);
#274=AXIS2_PLACEMENT_3D('',#408,#349,#350);
#275=AXIS2_PLACEMENT_3D('',#410,#351,#352);
#276=AXIS2_PLACEMENT_3D('',#411,#353,#354);
#277=DIRECTION('',(0.,0.,1.));
#278=DIRECTION('',(1.,0.,0.));
#279=DIRECTION('',(0.,0.,1.));
#280=DIRECTION('',(1.,0.,0.));
#281=DIRECTION('',(0.,0.,-1.));
#282=DIRECTION('',(-1.,0.,0.));
#283=DIRECTION('',(0.,0.,-1.));
#284=DIRECTION('',(-1.,0.,0.));
#285=DIRECTION('',(0.,0.,-1.));
#286=DIRECTION('',(-1.,0.,0.));
#287=DIRECTION('',(0.,0.,-1.));
#288=DIRECTION('',(-1.,0.,0.));
#289=DIRECTION('',(0.,0.,-1.));
#290=DIRECTION('',(-1.,0.,0.));
#291=DIRECTION('',(0.,0.,-1.));
#292=DIRECTION('',(-1.,0.,0.));
#293=DIRECTION('',(0.,0.,-1.));
#294=DIRECTION('',(-1.,0.,0.));
#295=DIRECTION('',(0.,0.,-1.));
#296=DIRECTION('',(-1.,0.,0.));
#297=DIRECTION('',(0.,0.,-1.));
#298=DIRECTION('',(-1.,0.,0.));
#299=DIRECTION('',(0.,0.,-1.));
#300=DIRECTION('',(-1.,0.,0.));
#301=DIRECTION('',(0.,0.,-1.));
#302=DIRECTION('',(-1.,0.,0.));
#303=DIRECTION('',(0.,0.,-1.));
#304=DIRECTION('',(-1.,0.,0.));
#305=DIRECTION('',(0.,0.,-1.));
#306=DIRECTION('',(-1.,0.,0.));
#307=DIRECTION('',(0.,0.,-1.));
#308=DIRECTION('',(-1.,0.,0.));
#309=DIRECTION('',(0.,0.,-1.));
#310=DIRECTION('',(-1.,0.,0.));
#311=DIRECTION('',(0.,0.,-1.));
#312=DIRECTION('',(-1.,0.,0.));
#313=DIRECTION('',(0.,0.,1.));
#314=DIRECTION('',(1.,0.,0.));
#315=DIRECTION('',(0.,0.,-1.));
#316=DIRECTION('',(-1.,0.,0.));
#317=DIRECTION('',(0.,0.,-1.));
#318=DIRECTION('',(-1.,0.,0.));
#319=DIRECTION('',(0.,0.,-1.));
#320=DIRECTION('',(-1.,0.,0.));
#321=DIRECTION('',(0.,0.,-1.));
#322=DIRECTION('',(-1.,0.,0.));
#323=DIRECTION('',(0.,0.,-1.));
#324=DIRECTION('',(-1.,0.,0.));
#325=DIRECTION('',(0.,0.,-1.));
#326=DIRECTION('',(-1.,0.,0.));
#327=DIRECTION('',(0.,0.,-1.));
#328=DIRECTION('',(-1.,0.,0.));
#329=DIRECTION('',(0.,0.,-1.));
#330=DIRECTION('',(-1.,0.,0.));
#331=DIRECTION('',(0.,0.,1.));
#332=DIRECTION('',(1.,0.,0.));
#333=DIRECTION('',(0.,0.,-1.));
#334=DIRECTION('',(-1.,0.,0.));
#335=DIRECTION('',(0.,0.,1.));
#336=DIRECTION('',(1.,0.,0.));
#337=DIRECTION('',(0.,0.,-1.));
#338=DIRECTION('',(-1.,0.,0.));
#339=DIRECTION('',(0.,0.,-1.));
#340=DIRECTION('',(-1.,0.,0.));
#341=DIRECTION('',(0.,0.,-1.));
#342=DIRECTION('',(-1.,0.,0.));
#343=DIRECTION('',(0.,0.,-1.));
#344=DIRECTION('',(-1.,0.,0.));
#345=DIRECTION('',(0.,0.,-1.));
#346=DIRECTION('',(-1.,0.,0.));
#347=DIRECTION('',(0.,0.,1.));
#348=DIRECTION('',(1.,0.,0.));
#349=DIRECTION('',(0.,0.,-1.));
#350=DIRECTION('',(-1.,0.,0.));
#351=DIRECTION('',(0.,0.,-1.));
#352=DIRECTION('',(-1.,0.,0.));
#353=DIRECTION('',(0.,0.,1.));
#354=DIRECTION('',(1.,0.,0.));
#355=CARTESIAN_POINT('',(0.,0.,0.));
#356=CARTESIAN_POINT('',(-7.4999999999999,0.,1468.5));
#357=CARTESIAN_POINT('',(0.,0.,1468.5));
#358=CARTESIAN_POINT('',(-7.,0.,1468.5));
#359=CARTESIAN_POINT('',(0.,0.,1468.5));
#360=CARTESIAN_POINT('',(-7.4999999999999,0.,1468.5));
#361=CARTESIAN_POINT('',(0.,0.,1750.));
#362=CARTESIAN_POINT('',(0.,0.,30.));
#363=CARTESIAN_POINT('',(-7.,0.,30.));
#364=CARTESIAN_POINT('',(-7.5,0.,30.));
#365=CARTESIAN_POINT('',(0.,0.,30.));
#366=CARTESIAN_POINT('',(-7.5,0.,30.));
#367=CARTESIAN_POINT('',(0.,0.,1750.));
#368=CARTESIAN_POINT('',(0.,0.,12.5000000000002));
#369=CARTESIAN_POINT('',(-7.5,0.,12.5000000000002));
#370=CARTESIAN_POINT('',(-10.5,0.,12.5));
#371=CARTESIAN_POINT('',(0.,0.,12.5000000000002));
#372=CARTESIAN_POINT('',(-10.5,0.,12.5000000000002));
#373=CARTESIAN_POINT('',(0.,0.,11.5));
#374=CARTESIAN_POINT('',(0.,0.,11.5));
#375=CARTESIAN_POINT('',(-11.5,0.,11.5));
#376=CARTESIAN_POINT('',(0.,0.,1750.));
#377=CARTESIAN_POINT('',(0.,0.,0.994987999999974));
#378=CARTESIAN_POINT('',(-11.5,0.,0.994987999999974));
#379=CARTESIAN_POINT('',(0.,0.,0.994988000000085));
#380=CARTESIAN_POINT('',(0.,0.,0.));
#381=CARTESIAN_POINT('',(-10.4000056008768,0.,0.));
#382=CARTESIAN_POINT('',(-10.4000056008768,0.,5.55111512312578E-14));
#383=CARTESIAN_POINT('',(-10.8,0.,1500.));
#384=CARTESIAN_POINT('',(0.,0.,1500.));
#385=CARTESIAN_POINT('',(-10.8,0.,1500.));
#386=CARTESIAN_POINT('',(0.,0.,1499.5));
#387=CARTESIAN_POINT('',(0.,0.,1499.5));
#388=CARTESIAN_POINT('',(-11.3,0.,1499.5));
#389=CARTESIAN_POINT('',(0.,0.,1750.));
#390=CARTESIAN_POINT('',(0.,0.,1497.));
#391=CARTESIAN_POINT('',(-11.3,0.,1497.));
#392=CARTESIAN_POINT('',(0.,0.,1497.));
#393=CARTESIAN_POINT('',(0.,0.,1496.5));
#394=CARTESIAN_POINT('',(-11.8,0.,1496.5));
#395=CARTESIAN_POINT('',(0.,0.,1496.5));
#396=CARTESIAN_POINT('',(0.,0.,1473.019434));
#397=CARTESIAN_POINT('',(-10.5694359999999,0.,1473.019434));
#398=CARTESIAN_POINT('',(0.,0.,1473.019434));
#399=CARTESIAN_POINT('',(0.,0.,1472.4));
#400=CARTESIAN_POINT('',(-9.95,0.,1472.4));
#401=CARTESIAN_POINT('',(0.,0.,1750.));
#402=CARTESIAN_POINT('',(0.,0.,1470.));
#403=CARTESIAN_POINT('',(-9.95,0.,1470.));
#404=CARTESIAN_POINT('',(0.,0.,1470.));
#405=CARTESIAN_POINT('',(0.,0.,1469.2));
#406=CARTESIAN_POINT('',(-9.15,0.,1469.2));
#407=CARTESIAN_POINT('',(-7.4999999999999,0.,1469.2));
#408=CARTESIAN_POINT('',(0.,0.,1469.2));
#409=CARTESIAN_POINT('',(-7.4999999999999,0.,1469.2));
#410=CARTESIAN_POINT('',(0.,0.,1750.));
#411=CARTESIAN_POINT('',(0.,0.,0.));
#412=MECHANICAL_DESIGN_GEOMETRIC_PRESENTATION_REPRESENTATION('',(#225),
#413);
#413=(
GEOMETRIC_REPRESENTATION_CONTEXT(3)
GLOBAL_UNCERTAINTY_ASSIGNED_CONTEXT((#415))
GLOBAL_UNIT_ASSIGNED_CONTEXT((#419,#418,#417))
REPRESENTATION_CONTEXT('28417000','TOP_LEVEL_ASSEMBLY_PART')
);
#414=(
GEOMETRIC_REPRESENTATION_CONTEXT(3)
GLOBAL_UNCERTAINTY_ASSIGNED_CONTEXT((#416))
GLOBAL_UNIT_ASSIGNED_CONTEXT((#419,#418,#417))
REPRESENTATION_CONTEXT('28417000','COMPONENT_PART')
);
#415=UNCERTAINTY_MEASURE_WITH_UNIT(LENGTH_MEASURE(0.005),#419,
'DISTANCE_ACCURACY_VALUE','Maximum Tolerance applied to model');
#416=UNCERTAINTY_MEASURE_WITH_UNIT(LENGTH_MEASURE(0.005),#419,
'DISTANCE_ACCURACY_VALUE','Maximum Tolerance applied to model');
#417=(
NAMED_UNIT(*)
SI_UNIT($,.STERADIAN.)
SOLID_ANGLE_UNIT()
);
#418=(
NAMED_UNIT(*)
PLANE_ANGLE_UNIT()
SI_UNIT($,.RADIAN.)
);
#419=(
LENGTH_UNIT()
NAMED_UNIT(*)
SI_UNIT(.MILLI.,.METRE.)
);
#420=PRODUCT_DEFINITION_SHAPE('','',#423);
#421=PRODUCT_DEFINITION_SHAPE('','',#424);
#422=PRODUCT_DEFINITION_SHAPE(' ','NAUO PRDDFN',#19);
#423=PRODUCT_DEFINITION('','',#427,#425);
#424=PRODUCT_DEFINITION('','',#428,#426);
#425=PRODUCT_DEFINITION_CONTEXT('',#438,'design');
#426=PRODUCT_DEFINITION_CONTEXT('',#438,'design');
#427=PRODUCT_DEFINITION_FORMATION_WITH_SPECIFIED_SOURCE('','',#431,
 .NOT_KNOWN.);
#428=PRODUCT_DEFINITION_FORMATION_WITH_SPECIFIED_SOURCE('','',#432,
 .NOT_KNOWN.);
#429=PRODUCT_RELATED_PRODUCT_CATEGORY('','',(#431));
#430=PRODUCT_RELATED_PRODUCT_CATEGORY('','',(#432));
#431=PRODUCT('28417000','28417000','28417000',(#435));
#432=PRODUCT('28417000','28417000','28417000',(#436));
#433=PRODUCT_CATEGORY('','');
#434=PRODUCT_CATEGORY('','');
#435=PRODUCT_CONTEXT('',#438,'mechanical');
#436=PRODUCT_CONTEXT('',#438,'mechanical');
#437=APPLICATION_PROTOCOL_DEFINITION('international standard',
'automotive_design',2010,#438);
#438=APPLICATION_CONTEXT(
'core data for automotive mechanical design processes');
ENDSEC;
END-ISO-10303-21;
