ISO-10303-21;
HEADER;
/* Generated by software containing ST-Developer
 * from STEP Tools, Inc. (www.steptools.com) 
 */
/* OPTION: strings as raw bytes, not using required /X/ escapes */

FILE_DESCRIPTION(
/* description */ ('Unknown'),
/* implementation_level */ '2;1');

FILE_NAME(
/* name */ '37321001',
/* time_stamp */ '2022-09-09T09:39:28+02:00',
/* author */ ('Unknown'),
/* organization */ ('GROHE AG'),
/* preprocessor_version */ 'ST-DEVELOPER v16.7',
/* originating_system */ 'DEX',
/* authorisation */ $);

FILE_SCHEMA (('AUTOMOTIVE_DESIGN {1 0 10303 214 3 1 1}'));
ENDSEC;

DATA;
#10=PROPERTY_DEFINITION_REPRESENTATION(#14,#12);
#11=PROPERTY_DEFINITION_REPRESENTATION(#15,#13);
#12=REPRESENTATION('',(#16),#509);
#13=REPRESENTATION('',(#17),#509);
#14=PROPERTY_DEFINITION('pmi validation property','',#516);
#15=PROPERTY_DEFINITION('pmi validation property','',#516);
#16=VALUE_REPRESENTATION_ITEM('number of annotations',COUNT_MEASURE(0.));
#17=VALUE_REPRESENTATION_ITEM('number of views',COUNT_MEASURE(0.));
#18=CONTEXT_DEPENDENT_SHAPE_REPRESENTATION(#20,#518);
#19=NEXT_ASSEMBLY_USAGE_OCCURRENCE('37321001','37321001','37321001',#519,
#520,'');
#20=(
REPRESENTATION_RELATIONSHIP(' ',' ',#284,#285)
REPRESENTATION_RELATIONSHIP_WITH_TRANSFORMATION(#21)
SHAPE_REPRESENTATION_RELATIONSHIP()
);
#21=ITEM_DEFINED_TRANSFORMATION(' ',' ',#286,#307);
#22=SHAPE_REPRESENTATION_RELATIONSHIP('','',#284,#23);
#23=ADVANCED_BREP_SHAPE_REPRESENTATION('',(#281),#510);
#24=ELLIPSE('',#298,5.00152316445525,5.);
#25=ELLIPSE('',#299,5.00152316445525,5.);
#26=ELLIPSE('',#300,5.00152316445525,5.);
#27=ELLIPSE('',#301,5.00152316445525,5.);
#28=B_SPLINE_SURFACE_WITH_KNOTS('',3,3,((#413,#414,#415,#416),(#417,#418,
#419,#420),(#421,#422,#423,#424),(#425,#426,#427,#428)),.UNSPECIFIED.,.F.,
 .F.,.F.,(4,4),(4,4),(0.,1.),(0.,1.),.PIECEWISE_BEZIER_KNOTS.);
#29=CIRCLE('',#289,4.80000000000017);
#30=CIRCLE('',#292,4.80000000000017);
#31=CYLINDRICAL_SURFACE('',#288,4.80000000000017);
#32=CYLINDRICAL_SURFACE('',#291,4.80000000000017);
#33=CYLINDRICAL_SURFACE('',#302,5.);
#34=CYLINDRICAL_SURFACE('',#303,5.);
#35=CYLINDRICAL_SURFACE('',#304,5.);
#36=CYLINDRICAL_SURFACE('',#305,5.);
#37=B_SPLINE_CURVE_WITH_KNOTS('',3,(#377,#378,#379,#380),.UNSPECIFIED.,
 .F.,.F.,(4,4),(0.,0.00850006855734969),.UNSPECIFIED.);
#38=B_SPLINE_CURVE_WITH_KNOTS('',3,(#388,#389,#390,#391,#392,#393,#394),
 .UNSPECIFIED.,.F.,.F.,(4,1,1,1,4),(0.,0.00375098979657365,0.00750197959314731,
0.011252969389721,0.0150039591862946),.UNSPECIFIED.);
#39=B_SPLINE_CURVE_WITH_KNOTS('',3,(#400,#401,#402,#403),.UNSPECIFIED.,
 .F.,.F.,(4,4),(0.,0.00850006855734969),.UNSPECIFIED.);
#40=B_SPLINE_CURVE_WITH_KNOTS('',3,(#406,#407,#408,#409,#410,#411,#412),
 .UNSPECIFIED.,.F.,.F.,(4,1,1,1,4),(3.16557328803012E-17,0.00375099775950663,
0.00750199551901323,0.0112529932785198,0.0150039910380264),
 .UNSPECIFIED.);
#41=B_SPLINE_CURVE_WITH_KNOTS('',3,(#429,#430,#431,#432),.UNSPECIFIED.,
 .F.,.F.,(4,4),(0.00499993838455553,0.110639370039327),.UNSPECIFIED.);
#42=B_SPLINE_CURVE_WITH_KNOTS('',3,(#435,#436,#437,#438,#439),
 .UNSPECIFIED.,.F.,.F.,(4,1,4),(0.,0.00390502430895504,0.00781004861791007),
 .UNSPECIFIED.);
#43=B_SPLINE_CURVE_WITH_KNOTS('',3,(#441,#442,#443,#444),.UNSPECIFIED.,
 .F.,.F.,(4,4),(0.00499973895200994,0.138638796097049),.UNSPECIFIED.);
#44=B_SPLINE_CURVE_WITH_KNOTS('',3,(#446,#447,#448,#449,#450),
 .UNSPECIFIED.,.F.,.F.,(4,1,4),(0.,0.00390502422629786,0.00781004845259571),
 .UNSPECIFIED.);
#45=B_SPLINE_CURVE_WITH_KNOTS('',3,(#452,#453,#454,#455),.UNSPECIFIED.,
 .F.,.F.,(4,4),(0.00499993838455553,0.110639370039327),.UNSPECIFIED.);
#46=B_SPLINE_CURVE_WITH_KNOTS('',3,(#457,#458,#459,#460,#461),
 .UNSPECIFIED.,.F.,.F.,(4,1,4),(0.,0.00390502430895503,0.00781004861791006),
 .UNSPECIFIED.);
#47=B_SPLINE_CURVE_WITH_KNOTS('',3,(#463,#464,#465,#466),.UNSPECIFIED.,
 .F.,.F.,(4,4),(0.00499973895200994,0.138638796097049),.UNSPECIFIED.);
#48=B_SPLINE_CURVE_WITH_KNOTS('',3,(#468,#469,#470,#471,#472),
 .UNSPECIFIED.,.F.,.F.,(4,1,4),(0.,0.00390502422629785,0.00781004845259571),
 .UNSPECIFIED.);
#49=ORIENTED_EDGE('',*,*,#121,.F.);
#50=ORIENTED_EDGE('',*,*,#122,.F.);
#51=ORIENTED_EDGE('',*,*,#123,.F.);
#52=ORIENTED_EDGE('',*,*,#124,.T.);
#53=ORIENTED_EDGE('',*,*,#125,.F.);
#54=ORIENTED_EDGE('',*,*,#126,.F.);
#55=ORIENTED_EDGE('',*,*,#127,.F.);
#56=ORIENTED_EDGE('',*,*,#122,.T.);
#57=ORIENTED_EDGE('',*,*,#128,.F.);
#58=ORIENTED_EDGE('',*,*,#129,.F.);
#59=ORIENTED_EDGE('',*,*,#130,.F.);
#60=ORIENTED_EDGE('',*,*,#126,.T.);
#61=ORIENTED_EDGE('',*,*,#131,.F.);
#62=ORIENTED_EDGE('',*,*,#124,.F.);
#63=ORIENTED_EDGE('',*,*,#132,.F.);
#64=ORIENTED_EDGE('',*,*,#129,.T.);
#65=ORIENTED_EDGE('',*,*,#132,.T.);
#66=ORIENTED_EDGE('',*,*,#123,.T.);
#67=ORIENTED_EDGE('',*,*,#127,.T.);
#68=ORIENTED_EDGE('',*,*,#130,.T.);
#69=ORIENTED_EDGE('',*,*,#133,.T.);
#70=ORIENTED_EDGE('',*,*,#134,.T.);
#71=ORIENTED_EDGE('',*,*,#135,.T.);
#72=ORIENTED_EDGE('',*,*,#136,.T.);
#73=ORIENTED_EDGE('',*,*,#137,.T.);
#74=ORIENTED_EDGE('',*,*,#138,.T.);
#75=ORIENTED_EDGE('',*,*,#139,.T.);
#76=ORIENTED_EDGE('',*,*,#140,.T.);
#77=ORIENTED_EDGE('',*,*,#135,.F.);
#78=ORIENTED_EDGE('',*,*,#141,.T.);
#79=ORIENTED_EDGE('',*,*,#142,.T.);
#80=ORIENTED_EDGE('',*,*,#143,.T.);
#81=ORIENTED_EDGE('',*,*,#144,.T.);
#82=ORIENTED_EDGE('',*,*,#145,.T.);
#83=ORIENTED_EDGE('',*,*,#133,.F.);
#84=ORIENTED_EDGE('',*,*,#146,.T.);
#85=ORIENTED_EDGE('',*,*,#139,.F.);
#86=ORIENTED_EDGE('',*,*,#147,.T.);
#87=ORIENTED_EDGE('',*,*,#148,.T.);
#88=ORIENTED_EDGE('',*,*,#149,.T.);
#89=ORIENTED_EDGE('',*,*,#137,.F.);
#90=ORIENTED_EDGE('',*,*,#150,.T.);
#91=ORIENTED_EDGE('',*,*,#151,.T.);
#92=ORIENTED_EDGE('',*,*,#152,.T.);
#93=ORIENTED_EDGE('',*,*,#142,.F.);
#94=ORIENTED_EDGE('',*,*,#153,.T.);
#95=ORIENTED_EDGE('',*,*,#144,.F.);
#96=ORIENTED_EDGE('',*,*,#154,.T.);
#97=ORIENTED_EDGE('',*,*,#148,.F.);
#98=ORIENTED_EDGE('',*,*,#155,.T.);
#99=ORIENTED_EDGE('',*,*,#151,.F.);
#100=ORIENTED_EDGE('',*,*,#156,.T.);
#101=ORIENTED_EDGE('',*,*,#140,.F.);
#102=ORIENTED_EDGE('',*,*,#149,.F.);
#103=ORIENTED_EDGE('',*,*,#154,.F.);
#104=ORIENTED_EDGE('',*,*,#146,.F.);
#105=ORIENTED_EDGE('',*,*,#138,.F.);
#106=ORIENTED_EDGE('',*,*,#152,.F.);
#107=ORIENTED_EDGE('',*,*,#155,.F.);
#108=ORIENTED_EDGE('',*,*,#147,.F.);
#109=ORIENTED_EDGE('',*,*,#136,.F.);
#110=ORIENTED_EDGE('',*,*,#143,.F.);
#111=ORIENTED_EDGE('',*,*,#156,.F.);
#112=ORIENTED_EDGE('',*,*,#150,.F.);
#113=ORIENTED_EDGE('',*,*,#134,.F.);
#114=ORIENTED_EDGE('',*,*,#145,.F.);
#115=ORIENTED_EDGE('',*,*,#153,.F.);
#116=ORIENTED_EDGE('',*,*,#141,.F.);
#117=ORIENTED_EDGE('',*,*,#125,.T.);
#118=ORIENTED_EDGE('',*,*,#121,.T.);
#119=ORIENTED_EDGE('',*,*,#131,.T.);
#120=ORIENTED_EDGE('',*,*,#128,.T.);
#121=EDGE_CURVE('',#157,#158,#181,.T.);
#122=EDGE_CURVE('',#159,#157,#182,.T.);
#123=EDGE_CURVE('',#160,#159,#37,.T.);
#124=EDGE_CURVE('',#160,#158,#183,.T.);
#125=EDGE_CURVE('',#161,#157,#29,.F.);
#126=EDGE_CURVE('',#162,#161,#184,.T.);
#127=EDGE_CURVE('',#159,#162,#38,.T.);
#128=EDGE_CURVE('',#163,#161,#185,.T.);
#129=EDGE_CURVE('',#164,#163,#186,.T.);
#130=EDGE_CURVE('',#162,#164,#39,.T.);
#131=EDGE_CURVE('',#158,#163,#30,.F.);
#132=EDGE_CURVE('',#164,#160,#40,.T.);
#133=EDGE_CURVE('',#165,#166,#41,.T.);
#134=EDGE_CURVE('',#166,#167,#42,.T.);
#135=EDGE_CURVE('',#167,#168,#43,.T.);
#136=EDGE_CURVE('',#168,#169,#44,.T.);
#137=EDGE_CURVE('',#169,#170,#45,.T.);
#138=EDGE_CURVE('',#170,#171,#46,.T.);
#139=EDGE_CURVE('',#171,#172,#47,.T.);
#140=EDGE_CURVE('',#172,#165,#48,.T.);
#141=EDGE_CURVE('',#167,#173,#187,.F.);
#142=EDGE_CURVE('',#173,#174,#188,.F.);
#143=EDGE_CURVE('',#174,#168,#189,.T.);
#144=EDGE_CURVE('',#175,#176,#190,.F.);
#145=EDGE_CURVE('',#176,#166,#191,.T.);
#146=EDGE_CURVE('',#165,#175,#192,.F.);
#147=EDGE_CURVE('',#171,#177,#193,.F.);
#148=EDGE_CURVE('',#177,#178,#194,.F.);
#149=EDGE_CURVE('',#178,#172,#195,.T.);
#150=EDGE_CURVE('',#169,#179,#196,.F.);
#151=EDGE_CURVE('',#179,#180,#197,.F.);
#152=EDGE_CURVE('',#180,#170,#198,.T.);
#153=EDGE_CURVE('',#173,#176,#24,.F.);
#154=EDGE_CURVE('',#175,#178,#25,.F.);
#155=EDGE_CURVE('',#177,#180,#26,.F.);
#156=EDGE_CURVE('',#179,#174,#27,.F.);
#157=VERTEX_POINT('',#373);
#158=VERTEX_POINT('',#374);
#159=VERTEX_POINT('',#376);
#160=VERTEX_POINT('',#381);
#161=VERTEX_POINT('',#385);
#162=VERTEX_POINT('',#387);
#163=VERTEX_POINT('',#397);
#164=VERTEX_POINT('',#399);
#165=VERTEX_POINT('',#433);
#166=VERTEX_POINT('',#434);
#167=VERTEX_POINT('',#440);
#168=VERTEX_POINT('',#445);
#169=VERTEX_POINT('',#451);
#170=VERTEX_POINT('',#456);
#171=VERTEX_POINT('',#462);
#172=VERTEX_POINT('',#467);
#173=VERTEX_POINT('',#475);
#174=VERTEX_POINT('',#477);
#175=VERTEX_POINT('',#481);
#176=VERTEX_POINT('',#482);
#177=VERTEX_POINT('',#487);
#178=VERTEX_POINT('',#489);
#179=VERTEX_POINT('',#493);
#180=VERTEX_POINT('',#495);
#181=LINE('',#372,#199);
#182=LINE('',#375,#200);
#183=LINE('',#382,#201);
#184=LINE('',#386,#202);
#185=LINE('',#396,#203);
#186=LINE('',#398,#204);
#187=LINE('',#474,#205);
#188=LINE('',#476,#206);
#189=LINE('',#478,#207);
#190=LINE('',#480,#208);
#191=LINE('',#483,#209);
#192=LINE('',#484,#210);
#193=LINE('',#486,#211);
#194=LINE('',#488,#212);
#195=LINE('',#490,#213);
#196=LINE('',#492,#214);
#197=LINE('',#494,#215);
#198=LINE('',#496,#216);
#199=VECTOR('',#312,1000.);
#200=VECTOR('',#313,1000.);
#201=VECTOR('',#314,1000.);
#202=VECTOR('',#319,1000.);
#203=VECTOR('',#322,1000.);
#204=VECTOR('',#323,1000.);
#205=VECTOR('',#330,1000.);
#206=VECTOR('',#331,1000.);
#207=VECTOR('',#332,1000.);
#208=VECTOR('',#335,1000.);
#209=VECTOR('',#336,1000.);
#210=VECTOR('',#337,1000.);
#211=VECTOR('',#340,1000.);
#212=VECTOR('',#341,1000.);
#213=VECTOR('',#342,1000.);
#214=VECTOR('',#345,1000.);
#215=VECTOR('',#346,1000.);
#216=VECTOR('',#347,1000.);
#217=EDGE_LOOP('',(#49,#50,#51,#52));
#218=EDGE_LOOP('',(#53,#54,#55,#56));
#219=EDGE_LOOP('',(#57,#58,#59,#60));
#220=EDGE_LOOP('',(#61,#62,#63,#64));
#221=EDGE_LOOP('',(#65,#66,#67,#68));
#222=EDGE_LOOP('',(#69,#70,#71,#72,#73,#74,#75,#76));
#223=EDGE_LOOP('',(#77,#78,#79,#80));
#224=EDGE_LOOP('',(#81,#82,#83,#84));
#225=EDGE_LOOP('',(#85,#86,#87,#88));
#226=EDGE_LOOP('',(#89,#90,#91,#92));
#227=EDGE_LOOP('',(#93,#94,#95,#96,#97,#98,#99,#100));
#228=EDGE_LOOP('',(#101,#102,#103,#104));
#229=EDGE_LOOP('',(#105,#106,#107,#108));
#230=EDGE_LOOP('',(#109,#110,#111,#112));
#231=EDGE_LOOP('',(#113,#114,#115,#116));
#232=EDGE_LOOP('',(#117,#118,#119,#120));
#233=FACE_BOUND('',#217,.T.);
#234=FACE_BOUND('',#218,.T.);
#235=FACE_BOUND('',#219,.T.);
#236=FACE_BOUND('',#220,.T.);
#237=FACE_BOUND('',#221,.T.);
#238=FACE_BOUND('',#222,.T.);
#239=FACE_BOUND('',#223,.T.);
#240=FACE_BOUND('',#224,.T.);
#241=FACE_BOUND('',#225,.T.);
#242=FACE_BOUND('',#226,.T.);
#243=FACE_BOUND('',#227,.T.);
#244=FACE_BOUND('',#228,.T.);
#245=FACE_BOUND('',#229,.T.);
#246=FACE_BOUND('',#230,.T.);
#247=FACE_BOUND('',#231,.T.);
#248=FACE_BOUND('',#232,.T.);
#249=PLANE('',#287);
#250=PLANE('',#290);
#251=PLANE('',#293);
#252=PLANE('',#294);
#253=PLANE('',#295);
#254=PLANE('',#296);
#255=PLANE('',#297);
#256=PLANE('',#306);
#257=ADVANCED_FACE('',(#233),#249,.F.);
#258=ADVANCED_FACE('',(#234),#31,.F.);
#259=ADVANCED_FACE('',(#235),#250,.F.);
#260=ADVANCED_FACE('',(#236),#32,.F.);
#261=ADVANCED_FACE('',(#237,#238),#28,.F.);
#262=ADVANCED_FACE('',(#239),#251,.T.);
#263=ADVANCED_FACE('',(#240),#252,.T.);
#264=ADVANCED_FACE('',(#241),#253,.T.);
#265=ADVANCED_FACE('',(#242),#254,.T.);
#266=ADVANCED_FACE('',(#243),#255,.F.);
#267=ADVANCED_FACE('',(#244),#33,.T.);
#268=ADVANCED_FACE('',(#245),#34,.T.);
#269=ADVANCED_FACE('',(#246),#35,.T.);
#270=ADVANCED_FACE('',(#247),#36,.T.);
#271=ADVANCED_FACE('',(#248),#256,.F.);
#272=CLOSED_SHELL('',(#257,#258,#259,#260,#261,#262,#263,#264,#265,#266,
#267,#268,#269,#270,#271));
#273=STYLED_ITEM('',(#274),#281);
#274=PRESENTATION_STYLE_ASSIGNMENT((#275));
#275=SURFACE_STYLE_USAGE(.BOTH.,#276);
#276=SURFACE_SIDE_STYLE('',(#277));
#277=SURFACE_STYLE_FILL_AREA(#278);
#278=FILL_AREA_STYLE('',(#279));
#279=FILL_AREA_STYLE_COLOUR('',#280);
#280=COLOUR_RGB('',0.200000002980232,0.200000002980232,0.200000002980232);
#281=MANIFOLD_SOLID_BREP('',#272);
#282=SHAPE_DEFINITION_REPRESENTATION(#517,#284);
#283=SHAPE_DEFINITION_REPRESENTATION(#516,#285);
#284=SHAPE_REPRESENTATION('37321001',(#286),#510);
#285=SHAPE_REPRESENTATION('37321001',(#286,#307),#509);
#286=AXIS2_PLACEMENT_3D('',#370,#308,#309);
#287=AXIS2_PLACEMENT_3D('',#371,#310,#311);
#288=AXIS2_PLACEMENT_3D('',#383,#315,#316);
#289=AXIS2_PLACEMENT_3D('',#384,#317,#318);
#290=AXIS2_PLACEMENT_3D('',#395,#320,#321);
#291=AXIS2_PLACEMENT_3D('',#404,#324,#325);
#292=AXIS2_PLACEMENT_3D('',#405,#326,#327);
#293=AXIS2_PLACEMENT_3D('',#473,#328,#329);
#294=AXIS2_PLACEMENT_3D('',#479,#333,#334);
#295=AXIS2_PLACEMENT_3D('',#485,#338,#339);
#296=AXIS2_PLACEMENT_3D('',#491,#343,#344);
#297=AXIS2_PLACEMENT_3D('',#497,#348,#349);
#298=AXIS2_PLACEMENT_3D('',#498,#350,#351);
#299=AXIS2_PLACEMENT_3D('',#499,#352,#353);
#300=AXIS2_PLACEMENT_3D('',#500,#354,#355);
#301=AXIS2_PLACEMENT_3D('',#501,#356,#357);
#302=AXIS2_PLACEMENT_3D('',#502,#358,#359);
#303=AXIS2_PLACEMENT_3D('',#503,#360,#361);
#304=AXIS2_PLACEMENT_3D('',#504,#362,#363);
#305=AXIS2_PLACEMENT_3D('',#505,#364,#365);
#306=AXIS2_PLACEMENT_3D('',#506,#366,#367);
#307=AXIS2_PLACEMENT_3D('',#507,#368,#369);
#308=DIRECTION('',(0.,0.,1.));
#309=DIRECTION('',(1.,0.,0.));
#310=DIRECTION('',(3.08148791101956E-33,-1.,-5.02559486697302E-16));
#311=DIRECTION('',(1.,-1.16856396634988E-16,4.44089209850063E-16));
#312=DIRECTION('',(-2.46519032881566E-32,2.52759306156641E-16,-1.));
#313=DIRECTION('',(-1.,1.16856396634988E-16,-4.44089209850063E-16));
#314=DIRECTION('',(-1.,1.16856396634988E-16,-4.44089209850063E-16));
#315=DIRECTION('',(-1.,1.16856396634988E-16,-4.44089209850063E-16));
#316=DIRECTION('',(3.08148791101956E-33,-1.,-5.02559486697302E-16));
#317=DIRECTION('',(-1.,1.16856396634988E-16,-4.44089209850063E-16));
#318=DIRECTION('',(3.08148791101956E-33,-1.,-5.02559486697302E-16));
#319=DIRECTION('',(-1.,1.16856396634988E-16,-4.44089209850063E-16));
#320=DIRECTION('',(-3.08148791101956E-33,1.,5.02559486697302E-16));
#321=DIRECTION('',(-1.,1.16856396634988E-16,-4.44089209850063E-16));
#322=DIRECTION('',(2.46519032881566E-32,-2.52759306156641E-16,1.));
#323=DIRECTION('',(-1.,1.16856396634988E-16,-4.44089209850063E-16));
#324=DIRECTION('',(-1.,1.16856396634988E-16,-4.44089209850063E-16));
#325=DIRECTION('',(3.08148791101956E-33,-1.,-5.02559486697302E-16));
#326=DIRECTION('',(-1.,1.16856396634988E-16,-4.44089209850063E-16));
#327=DIRECTION('',(3.08148791101956E-33,-1.,-5.02559486697302E-16));
#328=DIRECTION('',(0.0174524064372835,-0.999847695156391,-4.94732519068561E-16));
#329=DIRECTION('',(0.999847695156391,0.0174524064372834,4.52792445333162E-16));
#330=DIRECTION('',(0.999695459881888,0.0174497491606826,-0.0174497491606822));
#331=DIRECTION('',(2.46519032881566E-32,-2.52759306156641E-16,1.));
#332=DIRECTION('',(0.999695459881888,0.0174497491606826,0.0174497491606832));
#333=DIRECTION('',(0.0174524064372835,-2.54760235018917E-16,0.999847695156391));
#334=DIRECTION('',(0.999847695156391,-1.12427340697922E-16,-0.0174524064372831));
#335=DIRECTION('',(-3.08148791101956E-33,1.,5.02559486697302E-16));
#336=DIRECTION('',(0.999695459881888,0.0174497491606826,-0.0174497491606822));
#337=DIRECTION('',(0.999695459881888,-0.0174497491606828,-0.0174497491606822));
#338=DIRECTION('',(0.0174524064372835,0.999847695156391,5.10233369837991E-16));
#339=DIRECTION('',(-0.999847695156391,0.0174524064372837,-4.35250700491654E-16));
#340=DIRECTION('',(0.999695459881888,-0.0174497491606828,0.0174497491606831));
#341=DIRECTION('',(-2.46519032881566E-32,2.52759306156641E-16,-1.));
#342=DIRECTION('',(0.999695459881888,-0.0174497491606828,-0.0174497491606822));
#343=DIRECTION('',(0.0174524064372835,2.50681384361176E-16,-0.999847695156391));
#344=DIRECTION('',(-0.999847695156391,1.21249856981625E-16,-0.017452406437284));
#345=DIRECTION('',(0.999695459881888,0.0174497491606826,0.0174497491606832));
#346=DIRECTION('',(3.08148791101956E-33,-1.,-5.02559486697302E-16));
#347=DIRECTION('',(0.999695459881888,-0.0174497491606828,0.0174497491606831));
#348=DIRECTION('',(1.,-1.16856396634988E-16,4.44089209850063E-16));
#349=DIRECTION('',(-3.08148791101956E-33,1.,5.02559486697302E-16));
#350=DIRECTION('',(1.,-1.16856396634988E-16,4.44089209850063E-16));
#351=DIRECTION('',(1.96104689822368E-32,-0.707106781186548,0.707106781186547));
#352=DIRECTION('',(1.,-1.16856396634988E-16,4.44089209850063E-16));
#353=DIRECTION('',(1.52525869861842E-32,0.707106781186547,0.707106781186548));
#354=DIRECTION('',(1.,-1.16856396634988E-16,4.44089209850063E-16));
#355=DIRECTION('',(-1.96104689822368E-32,0.707106781186548,-0.707106781186547));
#356=DIRECTION('',(1.,-1.16856396634988E-16,4.44089209850063E-16));
#357=DIRECTION('',(-1.52525869861842E-32,-0.707106781186547,-0.707106781186548));
#358=DIRECTION('',(-0.999695459881887,0.0174497491606828,0.0174497491606822));
#359=DIRECTION('',(-0.0174524064372835,-0.999847695156391,-5.10233369837991E-16));
#360=DIRECTION('',(-0.999695459881887,0.0174497491606828,-0.0174497491606831));
#361=DIRECTION('',(-0.0174524064372835,-0.999847695156391,-5.10233369837991E-16));
#362=DIRECTION('',(-0.999695459881887,-0.0174497491606826,-0.0174497491606832));
#363=DIRECTION('',(0.0174524064372835,-0.999847695156391,-4.94732519068561E-16));
#364=DIRECTION('',(-0.999695459881887,-0.0174497491606826,0.0174497491606822));
#365=DIRECTION('',(0.0174524064372835,-0.999847695156391,-4.94732519068561E-16));
#366=DIRECTION('',(-1.,1.16856396634988E-16,-4.44089209850063E-16));
#367=DIRECTION('',(3.08148791101956E-33,-1.,-5.02559486697302E-16));
#368=DIRECTION('',(0.,0.,1.));
#369=DIRECTION('',(1.,0.,0.));
#370=CARTESIAN_POINT('',(0.,0.,0.));
#371=CARTESIAN_POINT('',(186.559346275192,-4.8,-20.2));
#372=CARTESIAN_POINT('',(9.6,-4.8,-20.2));
#373=CARTESIAN_POINT('',(9.6,-4.80000000000015,-20.2));
#374=CARTESIAN_POINT('',(9.6,-4.80000000000015,-28.7));
#375=CARTESIAN_POINT('',(186.559346275192,-4.80000000000017,-20.2));
#376=CARTESIAN_POINT('',(10.5634342718826,-4.80000000000015,-20.2));
#377=CARTESIAN_POINT('',(10.5292951499726,-4.8,-28.7));
#378=CARTESIAN_POINT('',(10.5426529373819,-4.8,-25.8666746113629));
#379=CARTESIAN_POINT('',(10.5540326410204,-4.8,-23.0333412780148));
#380=CARTESIAN_POINT('',(10.5634342718827,-4.8,-20.2));
#381=CARTESIAN_POINT('',(10.5292951499726,-4.80000000000015,-28.7));
#382=CARTESIAN_POINT('',(186.559346275192,-4.80000000000017,-28.7));
#383=CARTESIAN_POINT('',(186.559346275192,-6.18982640398525E-15,-20.2));
#384=CARTESIAN_POINT('',(9.6,1.44890051526168E-14,-20.2));
#385=CARTESIAN_POINT('',(9.6,4.80000000000018,-20.2));
#386=CARTESIAN_POINT('',(186.559346275192,4.80000000000016,-20.2));
#387=CARTESIAN_POINT('',(10.5634342718826,4.80000000000018,-20.2));
#388=CARTESIAN_POINT('',(10.5634342718826,-4.80000000000015,-20.2));
#389=CARTESIAN_POINT('',(10.5676428449533,-4.80000000000013,-18.9316749639122));
#390=CARTESIAN_POINT('',(10.5764099067248,-3.75996880106573,-16.4454823961495));
#391=CARTESIAN_POINT('',(10.5824278057657,-0.00446184062955706,-14.8783012207341));
#392=CARTESIAN_POINT('',(10.576425029218,3.75835221460275,-16.4413192980899));
#393=CARTESIAN_POINT('',(10.5676428449436,4.80000000000017,-18.9316749668353));
#394=CARTESIAN_POINT('',(10.5634342718826,4.80000000000019,-20.2));
#395=CARTESIAN_POINT('',(186.559346275192,4.8,-20.2));
#396=CARTESIAN_POINT('',(9.6,4.8,-20.2));
#397=CARTESIAN_POINT('',(9.6,4.80000000000018,-28.7));
#398=CARTESIAN_POINT('',(186.559346275192,4.8,-28.7));
#399=CARTESIAN_POINT('',(10.5292951499725,4.8,-28.7));
#400=CARTESIAN_POINT('',(10.5634342718826,4.8,-20.2));
#401=CARTESIAN_POINT('',(10.5540326410204,4.8,-23.0333412780148));
#402=CARTESIAN_POINT('',(10.5426529373819,4.8,-25.8666746113629));
#403=CARTESIAN_POINT('',(10.5292951499725,4.8,-28.7));
#404=CARTESIAN_POINT('',(186.559346275192,-4.04137230165388E-15,-28.7));
#405=CARTESIAN_POINT('',(9.6,1.66374592549482E-14,-28.7));
#406=CARTESIAN_POINT('',(10.5292951499725,4.80000000000018,-28.7));
#407=CARTESIAN_POINT('',(10.523315619275,4.8000000000002,-29.9683205397953));
#408=CARTESIAN_POINT('',(10.5120164762788,3.75997620185041,-32.4545111279775));
#409=CARTESIAN_POINT('',(10.5051741060868,0.00446221605001805,-34.0217019118932));
#410=CARTESIAN_POINT('',(10.5119978057865,-3.75835941447116,-32.4586746461243));
#411=CARTESIAN_POINT('',(10.5233156192284,-4.80000000000017,-29.9683205496789));
#412=CARTESIAN_POINT('',(10.5292951499726,-4.80000000000015,-28.7));
#413=CARTESIAN_POINT('',(9.8,-78.,-98.5));
#414=CARTESIAN_POINT('',(9.8,-26.0000000000264,-98.5));
#415=CARTESIAN_POINT('',(9.8,25.9999999999791,-98.5));
#416=CARTESIAN_POINT('',(9.8,78.,-98.5));
#417=CARTESIAN_POINT('',(9.80000000000051,-78.0000000000013,-32.8333333333325));
#418=CARTESIAN_POINT('',(11.2221816536129,-26.0097241875684,-32.8410338259713));
#419=CARTESIAN_POINT('',(11.2221816536096,26.0097241877056,-32.8410338259712));
#420=CARTESIAN_POINT('',(9.80000000000021,77.9999999999988,-32.8333333333324));
#421=CARTESIAN_POINT('',(9.80000000000051,-78.0000000000014,32.8333333333325));
#422=CARTESIAN_POINT('',(11.2221816536129,-26.0097241875684,32.8410338259716));
#423=CARTESIAN_POINT('',(11.2221816536096,26.0097241877056,32.8410338259716));
#424=CARTESIAN_POINT('',(9.80000000000021,77.9999999999988,32.8333333333326));
#425=CARTESIAN_POINT('',(9.8,-78.,98.5));
#426=CARTESIAN_POINT('',(9.8,-26.0000000000264,98.5));
#427=CARTESIAN_POINT('',(9.8,25.999999999979,98.5));
#428=CARTESIAN_POINT('',(9.8,78.,98.5));
#429=CARTESIAN_POINT('',(10.0028871434796,52.8191784536877,71.8184169294696));
#430=CARTESIAN_POINT('',(10.2320136393681,17.6067240145416,71.8144175116071));
#431=CARTESIAN_POINT('',(10.2320133116675,-17.60677437605,71.8144175173272));
#432=CARTESIAN_POINT('',(10.0028871434799,-52.8191784536877,71.8184169294696));
#433=CARTESIAN_POINT('',(10.0028871434796,52.8191784536877,71.8184169294697));
#434=CARTESIAN_POINT('',(10.0028871434799,-52.8191784536877,71.8184169294697));
#435=CARTESIAN_POINT('',(10.0028871434799,-52.8191784536877,71.8184169294697));
#436=CARTESIAN_POINT('',(9.9942954632623,-54.1395589144659,71.8185668978058));
#437=CARTESIAN_POINT('',(9.98348834591179,-56.7273549566888,70.7325347753185));
#438=CARTESIAN_POINT('',(9.9880115864086,-57.8186765832842,68.1397197780203));
#439=CARTESIAN_POINT('',(9.9945679112857,-57.8185621422078,66.8193236664258));
#440=CARTESIAN_POINT('',(9.9945679112857,-57.8185621422078,66.8193236664258));
#441=CARTESIAN_POINT('',(9.99456791128572,-57.8185621422078,66.8193236664258));
#442=CARTESIAN_POINT('',(10.2157572382533,-57.8147012681441,22.2734030891395));
#443=CARTESIAN_POINT('',(10.215757238247,-57.8147012681442,-22.2734030904038));
#444=CARTESIAN_POINT('',(9.99456791128572,-57.8185621422077,-66.8193236664258));
#445=CARTESIAN_POINT('',(9.99456791128571,-57.8185621422077,-66.8193236664258));
#446=CARTESIAN_POINT('',(9.99456791128571,-57.8185621422077,-66.8193236664258));
#447=CARTESIAN_POINT('',(9.98801160342246,-57.8186765829871,-68.1397163515536));
#448=CARTESIAN_POINT('',(9.9834796481573,-56.7324267401882,-70.7274643614783));
#449=CARTESIAN_POINT('',(9.9942954535976,-54.1395603997505,-71.8185668979744));
#450=CARTESIAN_POINT('',(10.0028871434799,-52.8191784536877,-71.8184169294697));
#451=CARTESIAN_POINT('',(10.0028871434799,-52.8191784536877,-71.8184169294697));
#452=CARTESIAN_POINT('',(10.0028871434799,-52.8191784536877,-71.8184169294696));
#453=CARTESIAN_POINT('',(10.2320136393685,-17.6067240145416,-71.8144175116071));
#454=CARTESIAN_POINT('',(10.2320133116671,17.60677437605,-71.8144175173271));
#455=CARTESIAN_POINT('',(10.0028871434796,52.8191784536877,-71.8184169294696));
#456=CARTESIAN_POINT('',(10.0028871434796,52.8191784536877,-71.8184169294696));
#457=CARTESIAN_POINT('',(10.0028871434796,52.8191784536877,-71.8184169294696));
#458=CARTESIAN_POINT('',(9.99429546326196,54.1395589144659,-71.8185668978057));
#459=CARTESIAN_POINT('',(9.98348834591145,56.7273549566887,-70.7325347753184));
#460=CARTESIAN_POINT('',(9.98801158640827,57.8186765832842,-68.1397197780201));
#461=CARTESIAN_POINT('',(9.99456791128536,57.8185621422078,-66.8193236664257));
#462=CARTESIAN_POINT('',(9.99456791128536,57.8185621422078,-66.8193236664257));
#463=CARTESIAN_POINT('',(9.99456791128537,57.8185621422078,-66.8193236664257));
#464=CARTESIAN_POINT('',(10.2157572382528,57.8147012681441,-22.2734030891394));
#465=CARTESIAN_POINT('',(10.2157572382465,57.8147012681442,22.2734030904038));
#466=CARTESIAN_POINT('',(9.99456791128537,57.8185621422077,66.8193236664258));
#467=CARTESIAN_POINT('',(9.99456791128536,57.8185621422077,66.8193236664259));
#468=CARTESIAN_POINT('',(9.99456791128536,57.8185621422077,66.8193236664259));
#469=CARTESIAN_POINT('',(9.98801160342212,57.8186765829871,68.1397163515538));
#470=CARTESIAN_POINT('',(9.98347964815696,56.7324267401882,70.7274643614785));
#471=CARTESIAN_POINT('',(9.99429545359726,54.1395603997505,71.8185668979744));
#472=CARTESIAN_POINT('',(10.0028871434796,52.8191784536877,71.8184169294697));
#473=CARTESIAN_POINT('',(-0.399999999999977,-58.,1.84798188325622E-14));
#474=CARTESIAN_POINT('',(0.768790430164576,-57.979598687154,66.9803602113721));
#475=CARTESIAN_POINT('',(-0.399999999999977,-58.,67.0007615242181));
#476=CARTESIAN_POINT('',(-0.399999999999977,-58.,1.84798188325622E-14));
#477=CARTESIAN_POINT('',(-0.399999999999977,-58.,-67.000761524218));
#478=CARTESIAN_POINT('',(0.768790430164576,-57.979598687154,-66.980360211372));
#479=CARTESIAN_POINT('',(-0.399999999999977,-9.71642364663545E-15,72.));
#480=CARTESIAN_POINT('',(-0.399999999999977,-9.71642364663545E-15,72.));
#481=CARTESIAN_POINT('',(-0.399999999999977,53.000761524218,72.));
#482=CARTESIAN_POINT('',(-0.399999999999977,-53.0007615242181,72.));
#483=CARTESIAN_POINT('',(0.524568339996404,-52.9846231238128,71.9838615995948));
#484=CARTESIAN_POINT('',(0.524568339996404,52.9846231238128,71.9838615995949));
#485=CARTESIAN_POINT('',(-0.399999999999977,58.,7.67767192894492E-14));
#486=CARTESIAN_POINT('',(0.768790430164576,57.979598687154,-66.980360211372));
#487=CARTESIAN_POINT('',(-0.399999999999977,58.,-67.000761524218));
#488=CARTESIAN_POINT('',(-0.399999999999977,58.,7.67767192894492E-14));
#489=CARTESIAN_POINT('',(-0.399999999999977,58.,67.0007615242181));
#490=CARTESIAN_POINT('',(0.768790430164576,57.979598687154,66.9803602113721));
#491=CARTESIAN_POINT('',(-0.399999999999977,2.66809164399209E-14,-72.));
#492=CARTESIAN_POINT('',(0.524568339996404,-52.9846231238128,-71.9838615995948));
#493=CARTESIAN_POINT('',(-0.399999999999977,-53.000761524218,-72.));
#494=CARTESIAN_POINT('',(-0.399999999999977,2.66809164399209E-14,-72.));
#495=CARTESIAN_POINT('',(-0.399999999999977,53.0007615242181,-72.));
#496=CARTESIAN_POINT('',(0.524568339996404,52.9846231238129,-71.9838615995947));
#497=CARTESIAN_POINT('',(-0.399999999999977,8.48224639664272E-15,4.76282690610057E-14));
#498=CARTESIAN_POINT('',(-0.399999999999977,-52.9992383597805,66.9992383597805));
#499=CARTESIAN_POINT('',(-0.399999999999977,52.9992383597805,66.9992383597805));
#500=CARTESIAN_POINT('',(-0.399999999999977,52.9992383597805,-66.9992383597804));
#501=CARTESIAN_POINT('',(-0.399999999999977,-52.9992383597805,-66.9992383597805));
#502=CARTESIAN_POINT('',(0.437306307809987,52.9846231238128,66.9846231238129));
#503=CARTESIAN_POINT('',(0.681528397978158,52.9803602113721,-66.980360211372));
#504=CARTESIAN_POINT('',(0.437306307809987,-52.9846231238128,-66.9846231238128));
#505=CARTESIAN_POINT('',(0.681528397978158,-52.9803602113721,66.9803602113721));
#506=CARTESIAN_POINT('',(9.6,5.52557300367527,-34.2826929502172));
#507=CARTESIAN_POINT('',(0.,0.,0.));
#508=MECHANICAL_DESIGN_GEOMETRIC_PRESENTATION_REPRESENTATION('',(#273),
#509);
#509=(
GEOMETRIC_REPRESENTATION_CONTEXT(3)
GLOBAL_UNCERTAINTY_ASSIGNED_CONTEXT((#511))
GLOBAL_UNIT_ASSIGNED_CONTEXT((#515,#514,#513))
REPRESENTATION_CONTEXT('37321001','TOP_LEVEL_ASSEMBLY_PART')
);
#510=(
GEOMETRIC_REPRESENTATION_CONTEXT(3)
GLOBAL_UNCERTAINTY_ASSIGNED_CONTEXT((#512))
GLOBAL_UNIT_ASSIGNED_CONTEXT((#515,#514,#513))
REPRESENTATION_CONTEXT('37321001','COMPONENT_PART')
);
#511=UNCERTAINTY_MEASURE_WITH_UNIT(LENGTH_MEASURE(0.005),#515,
'DISTANCE_ACCURACY_VALUE','Maximum Tolerance applied to model');
#512=UNCERTAINTY_MEASURE_WITH_UNIT(LENGTH_MEASURE(0.005),#515,
'DISTANCE_ACCURACY_VALUE','Maximum Tolerance applied to model');
#513=(
NAMED_UNIT(*)
SI_UNIT($,.STERADIAN.)
SOLID_ANGLE_UNIT()
);
#514=(
NAMED_UNIT(*)
PLANE_ANGLE_UNIT()
SI_UNIT($,.RADIAN.)
);
#515=(
LENGTH_UNIT()
NAMED_UNIT(*)
SI_UNIT(.MILLI.,.METRE.)
);
#516=PRODUCT_DEFINITION_SHAPE('','',#519);
#517=PRODUCT_DEFINITION_SHAPE('','',#520);
#518=PRODUCT_DEFINITION_SHAPE(' ','NAUO PRDDFN',#19);
#519=PRODUCT_DEFINITION('','',#523,#521);
#520=PRODUCT_DEFINITION('','',#524,#522);
#521=PRODUCT_DEFINITION_CONTEXT('',#534,'design');
#522=PRODUCT_DEFINITION_CONTEXT('',#534,'design');
#523=PRODUCT_DEFINITION_FORMATION_WITH_SPECIFIED_SOURCE('','',#527,
 .NOT_KNOWN.);
#524=PRODUCT_DEFINITION_FORMATION_WITH_SPECIFIED_SOURCE('','',#528,
 .NOT_KNOWN.);
#525=PRODUCT_RELATED_PRODUCT_CATEGORY('','',(#527));
#526=PRODUCT_RELATED_PRODUCT_CATEGORY('','',(#528));
#527=PRODUCT('37321001','37321001','37321001',(#531));
#528=PRODUCT('37321001','37321001','37321001',(#532));
#529=PRODUCT_CATEGORY('','');
#530=PRODUCT_CATEGORY('','');
#531=PRODUCT_CONTEXT('',#534,'mechanical');
#532=PRODUCT_CONTEXT('',#534,'mechanical');
#533=APPLICATION_PROTOCOL_DEFINITION('international standard',
'automotive_design',2010,#534);
#534=APPLICATION_CONTEXT(
'core data for automotive mechanical design processes');
ENDSEC;
END-ISO-10303-21;
