ISO-10303-21;
HEADER;
/* Generated by software containing ST-Developer
 * from STEP Tools, Inc. (www.steptools.com) 
 */
/* OPTION: strings as raw bytes, not using required /X/ escapes */

FILE_DESCRIPTION(
/* description */ ('Unknown'),
/* implementation_level */ '2;1');

FILE_NAME(
/* name */ '28410000',
/* time_stamp */ '2022-09-08T16:42:18+02:00',
/* author */ ('Unknown'),
/* organization */ ('GROHE AG'),
/* preprocessor_version */ 'ST-DEVELOPER v16.7',
/* originating_system */ 'DEX',
/* authorisation */ $);

FILE_SCHEMA (('AP242_MANAGED_MODEL_BASED_3D_ENGINEERING_MIM_LF { 1 0 10303 442 1 1 4 }',
'AUTOMOTIVE_DESIGN {1 0 10303 214 3 1 1}'));
ENDSEC;

DATA;
#10=PROPERTY_DEFINITION_REPRESENTATION(#14,#12);
#11=PROPERTY_DEFINITION_REPRESENTATION(#15,#13);
#12=REPRESENTATION('',(#16),#253);
#13=REPRESENTATION('',(#17),#253);
#14=PROPERTY_DEFINITION('pmi validation property','',#260);
#15=PROPERTY_DEFINITION('pmi validation property','',#260);
#16=VALUE_REPRESENTATION_ITEM('number of annotations',COUNT_MEASURE(0.));
#17=VALUE_REPRESENTATION_ITEM('number of views',COUNT_MEASURE(0.));
#18=CONTEXT_DEPENDENT_SHAPE_REPRESENTATION(#20,#262);
#19=NEXT_ASSEMBLY_USAGE_OCCURRENCE('28410000','28410000','28410000',#263,
#264,'');
#20=(
REPRESENTATION_RELATIONSHIP(' ',' ',#148,#149)
REPRESENTATION_RELATIONSHIP_WITH_TRANSFORMATION(#21)
SHAPE_REPRESENTATION_RELATIONSHIP()
);
#21=ITEM_DEFINED_TRANSFORMATION(' ',' ',#150,#172);
#22=SHAPE_REPRESENTATION_RELATIONSHIP('','',#148,#23);
#23=ADVANCED_BREP_SHAPE_REPRESENTATION('',(#145),#254);
#24=CONICAL_SURFACE('',#160,9.99972235452747,0.785398163397317);
#25=CONICAL_SURFACE('',#162,11.0636056652818,0.0523598775598293);
#26=CONICAL_SURFACE('',#164,11.8497223545274,0.785398163397633);
#27=CYLINDRICAL_SURFACE('',#154,7.54972235452746);
#28=CYLINDRICAL_SURFACE('',#158,9.99972235452747);
#29=CYLINDRICAL_SURFACE('',#166,11.5497223545275);
#30=CYLINDRICAL_SURFACE('',#171,11.5);
#31=ORIENTED_EDGE('',*,*,#51,.T.);
#32=ORIENTED_EDGE('',*,*,#52,.F.);
#33=ORIENTED_EDGE('',*,*,#53,.T.);
#34=ORIENTED_EDGE('',*,*,#51,.F.);
#35=ORIENTED_EDGE('',*,*,#54,.T.);
#36=ORIENTED_EDGE('',*,*,#53,.F.);
#37=ORIENTED_EDGE('',*,*,#55,.T.);
#38=ORIENTED_EDGE('',*,*,#54,.F.);
#39=ORIENTED_EDGE('',*,*,#56,.T.);
#40=ORIENTED_EDGE('',*,*,#55,.F.);
#41=ORIENTED_EDGE('',*,*,#57,.T.);
#42=ORIENTED_EDGE('',*,*,#56,.F.);
#43=ORIENTED_EDGE('',*,*,#58,.T.);
#44=ORIENTED_EDGE('',*,*,#57,.F.);
#45=ORIENTED_EDGE('',*,*,#59,.T.);
#46=ORIENTED_EDGE('',*,*,#58,.F.);
#47=ORIENTED_EDGE('',*,*,#59,.F.);
#48=ORIENTED_EDGE('',*,*,#60,.T.);
#49=ORIENTED_EDGE('',*,*,#52,.T.);
#50=ORIENTED_EDGE('',*,*,#60,.F.);
#51=EDGE_CURVE('',#61,#61,#71,.T.);
#52=EDGE_CURVE('',#62,#62,#72,.F.);
#53=EDGE_CURVE('',#63,#63,#73,.T.);
#54=EDGE_CURVE('',#64,#64,#74,.T.);
#55=EDGE_CURVE('',#65,#65,#75,.T.);
#56=EDGE_CURVE('',#66,#66,#76,.T.);
#57=EDGE_CURVE('',#67,#67,#77,.T.);
#58=EDGE_CURVE('',#68,#68,#78,.T.);
#59=EDGE_CURVE('',#69,#69,#79,.F.);
#60=EDGE_CURVE('',#70,#70,#80,.T.);
#61=VERTEX_POINT('',#222);
#62=VERTEX_POINT('',#224);
#63=VERTEX_POINT('',#227);
#64=VERTEX_POINT('',#230);
#65=VERTEX_POINT('',#233);
#66=VERTEX_POINT('',#236);
#67=VERTEX_POINT('',#239);
#68=VERTEX_POINT('',#242);
#69=VERTEX_POINT('',#245);
#70=VERTEX_POINT('',#249);
#71=CIRCLE('',#152,7.54972235452746);
#72=CIRCLE('',#153,11.5);
#73=CIRCLE('',#155,7.54972235452746);
#74=CIRCLE('',#157,9.99972235452747);
#75=CIRCLE('',#159,9.99972235452747);
#76=CIRCLE('',#161,10.370279968687);
#77=CIRCLE('',#163,11.8497223545274);
#78=CIRCLE('',#165,11.5497223545275);
#79=CIRCLE('',#167,11.5497223545275);
#80=CIRCLE('',#170,11.5);
#81=EDGE_LOOP('',(#31));
#82=EDGE_LOOP('',(#32));
#83=EDGE_LOOP('',(#33));
#84=EDGE_LOOP('',(#34));
#85=EDGE_LOOP('',(#35));
#86=EDGE_LOOP('',(#36));
#87=EDGE_LOOP('',(#37));
#88=EDGE_LOOP('',(#38));
#89=EDGE_LOOP('',(#39));
#90=EDGE_LOOP('',(#40));
#91=EDGE_LOOP('',(#41));
#92=EDGE_LOOP('',(#42));
#93=EDGE_LOOP('',(#43));
#94=EDGE_LOOP('',(#44));
#95=EDGE_LOOP('',(#45));
#96=EDGE_LOOP('',(#46));
#97=EDGE_LOOP('',(#47));
#98=EDGE_LOOP('',(#48));
#99=EDGE_LOOP('',(#49));
#100=EDGE_LOOP('',(#50));
#101=FACE_BOUND('',#81,.T.);
#102=FACE_BOUND('',#82,.T.);
#103=FACE_BOUND('',#83,.T.);
#104=FACE_BOUND('',#84,.T.);
#105=FACE_BOUND('',#85,.T.);
#106=FACE_BOUND('',#86,.T.);
#107=FACE_BOUND('',#87,.T.);
#108=FACE_BOUND('',#88,.T.);
#109=FACE_BOUND('',#89,.T.);
#110=FACE_BOUND('',#90,.T.);
#111=FACE_BOUND('',#91,.T.);
#112=FACE_BOUND('',#92,.T.);
#113=FACE_BOUND('',#93,.T.);
#114=FACE_BOUND('',#94,.T.);
#115=FACE_BOUND('',#95,.T.);
#116=FACE_BOUND('',#96,.T.);
#117=FACE_BOUND('',#97,.T.);
#118=FACE_BOUND('',#98,.T.);
#119=FACE_BOUND('',#99,.T.);
#120=FACE_BOUND('',#100,.T.);
#121=PLANE('',#151);
#122=PLANE('',#156);
#123=PLANE('',#168);
#124=PLANE('',#169);
#125=ADVANCED_FACE('',(#101,#102),#121,.T.);
#126=ADVANCED_FACE('',(#103,#104),#27,.T.);
#127=ADVANCED_FACE('',(#105,#106),#122,.T.);
#128=ADVANCED_FACE('',(#107,#108),#28,.T.);
#129=ADVANCED_FACE('',(#109,#110),#24,.T.);
#130=ADVANCED_FACE('',(#111,#112),#25,.T.);
#131=ADVANCED_FACE('',(#113,#114),#26,.T.);
#132=ADVANCED_FACE('',(#115,#116),#29,.T.);
#133=ADVANCED_FACE('',(#117),#123,.T.);
#134=ADVANCED_FACE('',(#118),#124,.T.);
#135=ADVANCED_FACE('',(#119,#120),#30,.T.);
#136=CLOSED_SHELL('',(#125,#126,#127,#128,#129,#130,#131,#132,#133,#134,
#135));
#137=STYLED_ITEM('',(#138),#145);
#138=PRESENTATION_STYLE_ASSIGNMENT((#139));
#139=SURFACE_STYLE_USAGE(.BOTH.,#140);
#140=SURFACE_SIDE_STYLE('',(#141));
#141=SURFACE_STYLE_FILL_AREA(#142);
#142=FILL_AREA_STYLE('',(#143));
#143=FILL_AREA_STYLE_COLOUR('',#144);
#144=COLOUR_RGB('',0.517647087574005,0.517647087574005,0.517647087574005);
#145=MANIFOLD_SOLID_BREP('',#136);
#146=SHAPE_DEFINITION_REPRESENTATION(#261,#148);
#147=SHAPE_DEFINITION_REPRESENTATION(#260,#149);
#148=SHAPE_REPRESENTATION('28410000',(#150),#254);
#149=SHAPE_REPRESENTATION('28410000',(#150,#172),#253);
#150=AXIS2_PLACEMENT_3D('',#219,#173,#174);
#151=AXIS2_PLACEMENT_3D('',#220,#175,#176);
#152=AXIS2_PLACEMENT_3D('',#221,#177,#178);
#153=AXIS2_PLACEMENT_3D('',#223,#179,#180);
#154=AXIS2_PLACEMENT_3D('',#225,#181,#182);
#155=AXIS2_PLACEMENT_3D('',#226,#183,#184);
#156=AXIS2_PLACEMENT_3D('',#228,#185,#186);
#157=AXIS2_PLACEMENT_3D('',#229,#187,#188);
#158=AXIS2_PLACEMENT_3D('',#231,#189,#190);
#159=AXIS2_PLACEMENT_3D('',#232,#191,#192);
#160=AXIS2_PLACEMENT_3D('',#234,#193,#194);
#161=AXIS2_PLACEMENT_3D('',#235,#195,#196);
#162=AXIS2_PLACEMENT_3D('',#237,#197,#198);
#163=AXIS2_PLACEMENT_3D('',#238,#199,#200);
#164=AXIS2_PLACEMENT_3D('',#240,#201,#202);
#165=AXIS2_PLACEMENT_3D('',#241,#203,#204);
#166=AXIS2_PLACEMENT_3D('',#243,#205,#206);
#167=AXIS2_PLACEMENT_3D('',#244,#207,#208);
#168=AXIS2_PLACEMENT_3D('',#246,#209,#210);
#169=AXIS2_PLACEMENT_3D('',#247,#211,#212);
#170=AXIS2_PLACEMENT_3D('',#248,#213,#214);
#171=AXIS2_PLACEMENT_3D('',#250,#215,#216);
#172=AXIS2_PLACEMENT_3D('',#251,#217,#218);
#173=DIRECTION('',(0.,0.,1.));
#174=DIRECTION('',(1.,0.,0.));
#175=DIRECTION('',(0.,0.,1.));
#176=DIRECTION('',(1.,0.,0.));
#177=DIRECTION('',(0.,0.,-1.));
#178=DIRECTION('',(-1.,0.,0.));
#179=DIRECTION('',(0.,0.,1.));
#180=DIRECTION('',(1.,0.,0.));
#181=DIRECTION('',(0.,0.,-1.));
#182=DIRECTION('',(-1.,0.,0.));
#183=DIRECTION('',(0.,0.,-1.));
#184=DIRECTION('',(-1.,0.,0.));
#185=DIRECTION('',(0.,0.,-1.));
#186=DIRECTION('',(-1.,0.,0.));
#187=DIRECTION('',(0.,0.,-1.));
#188=DIRECTION('',(-1.,0.,0.));
#189=DIRECTION('',(0.,0.,-1.));
#190=DIRECTION('',(-1.,0.,0.));
#191=DIRECTION('',(0.,0.,-1.));
#192=DIRECTION('',(-1.,0.,0.));
#193=DIRECTION('',(0.,0.,1.));
#194=DIRECTION('',(1.,0.,0.));
#195=DIRECTION('',(0.,0.,-1.));
#196=DIRECTION('',(-1.,0.,0.));
#197=DIRECTION('',(0.,0.,1.));
#198=DIRECTION('',(1.,0.,0.));
#199=DIRECTION('',(0.,0.,-1.));
#200=DIRECTION('',(-1.,0.,0.));
#201=DIRECTION('',(0.,0.,-1.));
#202=DIRECTION('',(-1.,0.,0.));
#203=DIRECTION('',(0.,0.,-1.));
#204=DIRECTION('',(-1.,0.,0.));
#205=DIRECTION('',(0.,0.,-1.));
#206=DIRECTION('',(-1.,0.,0.));
#207=DIRECTION('',(0.,0.,1.));
#208=DIRECTION('',(1.,0.,0.));
#209=DIRECTION('',(0.,0.,1.));
#210=DIRECTION('',(1.,0.,0.));
#211=DIRECTION('',(0.,0.,-1.));
#212=DIRECTION('',(-1.,0.,0.));
#213=DIRECTION('',(0.,0.,-1.));
#214=DIRECTION('',(-1.,0.,0.));
#215=DIRECTION('',(0.,0.,-1.));
#216=DIRECTION('',(-1.,0.,0.));
#217=DIRECTION('',(0.,0.,1.));
#218=DIRECTION('',(1.,0.,0.));
#219=CARTESIAN_POINT('',(0.,0.,0.));
#220=CARTESIAN_POINT('',(-10.5,0.,12.5));
#221=CARTESIAN_POINT('',(0.,0.,12.5));
#222=CARTESIAN_POINT('',(-7.54972235452746,0.,12.5));
#223=CARTESIAN_POINT('',(0.,0.,12.5));
#224=CARTESIAN_POINT('',(11.5,0.,12.5));
#225=CARTESIAN_POINT('',(0.,0.,54.));
#226=CARTESIAN_POINT('',(0.,0.,328.415368221146));
#227=CARTESIAN_POINT('',(-7.54972235452746,0.,328.415368221146));
#228=CARTESIAN_POINT('',(-8.99972235452747,0.,328.415368221146));
#229=CARTESIAN_POINT('',(0.,0.,328.415368221146));
#230=CARTESIAN_POINT('',(-9.99972235452747,0.,328.415368221146));
#231=CARTESIAN_POINT('',(0.,0.,54.));
#232=CARTESIAN_POINT('',(0.,0.,331.615368221147));
#233=CARTESIAN_POINT('',(-9.99972235452747,0.,331.615368221147));
#234=CARTESIAN_POINT('',(0.,0.,331.615368221147));
#235=CARTESIAN_POINT('',(0.,0.,331.985925835306));
#236=CARTESIAN_POINT('',(-10.370279968687,0.,331.985925835306));
#237=CARTESIAN_POINT('',(0.,0.,345.215368221146));
#238=CARTESIAN_POINT('',(0.,0.,360.215368221146));
#239=CARTESIAN_POINT('',(-11.8497223545274,0.,360.215368221146));
#240=CARTESIAN_POINT('',(0.,0.,360.215368221146));
#241=CARTESIAN_POINT('',(0.,0.,360.515368221146));
#242=CARTESIAN_POINT('',(-11.5497223545275,0.,360.515368221146));
#243=CARTESIAN_POINT('',(0.,0.,54.));
#244=CARTESIAN_POINT('',(0.,0.,363.715368221146));
#245=CARTESIAN_POINT('',(11.5497223545275,0.,363.715368221146));
#246=CARTESIAN_POINT('',(-11.0497223545275,0.,363.715368221146));
#247=CARTESIAN_POINT('',(0.,0.,-1.38777878078145E-14));
#248=CARTESIAN_POINT('',(0.,0.,-1.38777878078145E-14));
#249=CARTESIAN_POINT('',(-11.5,0.,-1.38777878078145E-14));
#250=CARTESIAN_POINT('',(0.,0.,54.));
#251=CARTESIAN_POINT('',(0.,0.,0.));
#252=MECHANICAL_DESIGN_GEOMETRIC_PRESENTATION_REPRESENTATION('',(#137),
#253);
#253=(
GEOMETRIC_REPRESENTATION_CONTEXT(3)
GLOBAL_UNCERTAINTY_ASSIGNED_CONTEXT((#255))
GLOBAL_UNIT_ASSIGNED_CONTEXT((#259,#258,#257))
REPRESENTATION_CONTEXT('28410000','TOP_LEVEL_ASSEMBLY_PART')
);
#254=(
GEOMETRIC_REPRESENTATION_CONTEXT(3)
GLOBAL_UNCERTAINTY_ASSIGNED_CONTEXT((#256))
GLOBAL_UNIT_ASSIGNED_CONTEXT((#259,#258,#257))
REPRESENTATION_CONTEXT('28410000','COMPONENT_PART')
);
#255=UNCERTAINTY_MEASURE_WITH_UNIT(LENGTH_MEASURE(0.005),#259,
'DISTANCE_ACCURACY_VALUE','Maximum Tolerance applied to model');
#256=UNCERTAINTY_MEASURE_WITH_UNIT(LENGTH_MEASURE(0.005),#259,
'DISTANCE_ACCURACY_VALUE','Maximum Tolerance applied to model');
#257=(
NAMED_UNIT(*)
SI_UNIT($,.STERADIAN.)
SOLID_ANGLE_UNIT()
);
#258=(
NAMED_UNIT(*)
PLANE_ANGLE_UNIT()
SI_UNIT($,.RADIAN.)
);
#259=(
LENGTH_UNIT()
NAMED_UNIT(*)
SI_UNIT(.MILLI.,.METRE.)
);
#260=PRODUCT_DEFINITION_SHAPE('','',#263);
#261=PRODUCT_DEFINITION_SHAPE('','',#264);
#262=PRODUCT_DEFINITION_SHAPE(' ','NAUO PRDDFN',#19);
#263=PRODUCT_DEFINITION('','',#267,#265);
#264=PRODUCT_DEFINITION('','',#268,#266);
#265=PRODUCT_DEFINITION_CONTEXT('',#278,'design');
#266=PRODUCT_DEFINITION_CONTEXT('',#278,'design');
#267=PRODUCT_DEFINITION_FORMATION_WITH_SPECIFIED_SOURCE('','',#271,
 .NOT_KNOWN.);
#268=PRODUCT_DEFINITION_FORMATION_WITH_SPECIFIED_SOURCE('','',#272,
 .NOT_KNOWN.);
#269=PRODUCT_RELATED_PRODUCT_CATEGORY('','',(#271));
#270=PRODUCT_RELATED_PRODUCT_CATEGORY('','',(#272));
#271=PRODUCT('28410000','28410000','28410000',(#275));
#272=PRODUCT('28410000','28410000','28410000',(#276));
#273=PRODUCT_CATEGORY('','');
#274=PRODUCT_CATEGORY('','');
#275=PRODUCT_CONTEXT('',#278,'mechanical');
#276=PRODUCT_CONTEXT('',#278,'mechanical');
#277=APPLICATION_PROTOCOL_DEFINITION('international standard',
'automotive_design',2010,#278);
#278=APPLICATION_CONTEXT(
'core data for automotive mechanical design processes');
ENDSEC;
END-ISO-10303-21;
