ISO-10303-21;
HEADER;
/* Generated by software containing ST-Developer
 * from STEP Tools, Inc. (www.steptools.com) 
 */
/* OPTION: strings as raw bytes, not using required /X/ escapes */

FILE_DESCRIPTION(
/* description */ ('Unknown'),
/* implementation_level */ '2;1');

FILE_NAME(
/* name */ '28364000',
/* time_stamp */ '2022-09-07T15:40:14+02:00',
/* author */ ('Unknown'),
/* organization */ ('GROHE AG'),
/* preprocessor_version */ 'ST-DEVELOPER v16.7',
/* originating_system */ 'DEX',
/* authorisation */ $);

FILE_SCHEMA (('AUTOMOTIVE_DESIGN {1 0 10303 214 3 1 1}'));
ENDSEC;

DATA;
#10=PROPERTY_DEFINITION_REPRESENTATION(#14,#12);
#11=PROPERTY_DEFINITION_REPRESENTATION(#15,#13);
#12=REPRESENTATION('',(#16),#293);
#13=REPRESENTATION('',(#17),#293);
#14=PROPERTY_DEFINITION('pmi validation property','',#300);
#15=PROPERTY_DEFINITION('pmi validation property','',#300);
#16=VALUE_REPRESENTATION_ITEM('number of annotations',COUNT_MEASURE(0.));
#17=VALUE_REPRESENTATION_ITEM('number of views',COUNT_MEASURE(0.));
#18=CONTEXT_DEPENDENT_SHAPE_REPRESENTATION(#20,#302);
#19=NEXT_ASSEMBLY_USAGE_OCCURRENCE('28364000','28364000','28364000',#303,
#304,'');
#20=(
REPRESENTATION_RELATIONSHIP(' ',' ',#170,#171)
REPRESENTATION_RELATIONSHIP_WITH_TRANSFORMATION(#21)
SHAPE_REPRESENTATION_RELATIONSHIP()
);
#21=ITEM_DEFINED_TRANSFORMATION(' ',' ',#172,#198);
#22=SHAPE_REPRESENTATION_RELATIONSHIP('','',#170,#23);
#23=ADVANCED_BREP_SHAPE_REPRESENTATION('',(#167),#294);
#24=PLANE('',#178);
#25=PLANE('',#182);
#26=PLANE('',#186);
#27=PLANE('',#197);
#28=CYLINDRICAL_SURFACE('',#176,6.9);
#29=CYLINDRICAL_SURFACE('',#180,7.5);
#30=CYLINDRICAL_SURFACE('',#184,11.5000005600719);
#31=CYLINDRICAL_SURFACE('',#187,11.5);
#32=CYLINDRICAL_SURFACE('',#196,9.95);
#33=ORIENTED_EDGE('',*,*,#57,.F.);
#34=ORIENTED_EDGE('',*,*,#58,.T.);
#35=ORIENTED_EDGE('',*,*,#59,.T.);
#36=ORIENTED_EDGE('',*,*,#57,.T.);
#37=ORIENTED_EDGE('',*,*,#59,.F.);
#38=ORIENTED_EDGE('',*,*,#60,.T.);
#39=ORIENTED_EDGE('',*,*,#61,.T.);
#40=ORIENTED_EDGE('',*,*,#60,.F.);
#41=ORIENTED_EDGE('',*,*,#61,.F.);
#42=ORIENTED_EDGE('',*,*,#62,.F.);
#43=ORIENTED_EDGE('',*,*,#62,.T.);
#44=ORIENTED_EDGE('',*,*,#63,.F.);
#45=ORIENTED_EDGE('',*,*,#63,.T.);
#46=ORIENTED_EDGE('',*,*,#64,.F.);
#47=ORIENTED_EDGE('',*,*,#65,.T.);
#48=ORIENTED_EDGE('',*,*,#66,.F.);
#49=ORIENTED_EDGE('',*,*,#64,.T.);
#50=ORIENTED_EDGE('',*,*,#67,.F.);
#51=ORIENTED_EDGE('',*,*,#66,.T.);
#52=ORIENTED_EDGE('',*,*,#68,.F.);
#53=ORIENTED_EDGE('',*,*,#67,.T.);
#54=ORIENTED_EDGE('',*,*,#58,.F.);
#55=ORIENTED_EDGE('',*,*,#68,.T.);
#56=ORIENTED_EDGE('',*,*,#65,.F.);
#57=EDGE_CURVE('',#69,#69,#81,.F.);
#58=EDGE_CURVE('',#70,#70,#82,.F.);
#59=EDGE_CURVE('',#71,#71,#83,.T.);
#60=EDGE_CURVE('',#72,#72,#84,.T.);
#61=EDGE_CURVE('',#73,#73,#85,.T.);
#62=EDGE_CURVE('',#74,#74,#86,.F.);
#63=EDGE_CURVE('',#75,#75,#87,.T.);
#64=EDGE_CURVE('',#76,#76,#88,.T.);
#65=EDGE_CURVE('',#77,#77,#89,.T.);
#66=EDGE_CURVE('',#78,#78,#90,.T.);
#67=EDGE_CURVE('',#79,#79,#91,.T.);
#68=EDGE_CURVE('',#80,#80,#92,.T.);
#69=VERTEX_POINT('',#256);
#70=VERTEX_POINT('',#258);
#71=VERTEX_POINT('',#261);
#72=VERTEX_POINT('',#264);
#73=VERTEX_POINT('',#267);
#74=VERTEX_POINT('',#270);
#75=VERTEX_POINT('',#273);
#76=VERTEX_POINT('',#277);
#77=VERTEX_POINT('',#279);
#78=VERTEX_POINT('',#282);
#79=VERTEX_POINT('',#285);
#80=VERTEX_POINT('',#288);
#81=CIRCLE('',#174,6.9);
#82=CIRCLE('',#175,9.95);
#83=CIRCLE('',#177,6.9);
#84=CIRCLE('',#179,7.5);
#85=CIRCLE('',#181,7.5);
#86=CIRCLE('',#183,11.5000005600719);
#87=CIRCLE('',#185,11.5000005600719);
#88=CIRCLE('',#188,11.5);
#89=CIRCLE('',#189,11.5);
#90=CIRCLE('',#191,11.8);
#91=CIRCLE('',#193,10.3205576141596);
#92=CIRCLE('',#195,9.95000000000018);
#93=EDGE_LOOP('',(#33));
#94=EDGE_LOOP('',(#34));
#95=EDGE_LOOP('',(#35));
#96=EDGE_LOOP('',(#36));
#97=EDGE_LOOP('',(#37));
#98=EDGE_LOOP('',(#38));
#99=EDGE_LOOP('',(#39));
#100=EDGE_LOOP('',(#40));
#101=EDGE_LOOP('',(#41));
#102=EDGE_LOOP('',(#42));
#103=EDGE_LOOP('',(#43));
#104=EDGE_LOOP('',(#44));
#105=EDGE_LOOP('',(#45));
#106=EDGE_LOOP('',(#46));
#107=EDGE_LOOP('',(#47));
#108=EDGE_LOOP('',(#48));
#109=EDGE_LOOP('',(#49));
#110=EDGE_LOOP('',(#50));
#111=EDGE_LOOP('',(#51));
#112=EDGE_LOOP('',(#52));
#113=EDGE_LOOP('',(#53));
#114=EDGE_LOOP('',(#54));
#115=EDGE_LOOP('',(#55));
#116=EDGE_LOOP('',(#56));
#117=FACE_BOUND('',#93,.T.);
#118=FACE_BOUND('',#94,.T.);
#119=FACE_BOUND('',#95,.T.);
#120=FACE_BOUND('',#96,.T.);
#121=FACE_BOUND('',#97,.T.);
#122=FACE_BOUND('',#98,.T.);
#123=FACE_BOUND('',#99,.T.);
#124=FACE_BOUND('',#100,.T.);
#125=FACE_BOUND('',#101,.T.);
#126=FACE_BOUND('',#102,.T.);
#127=FACE_BOUND('',#103,.T.);
#128=FACE_BOUND('',#104,.T.);
#129=FACE_BOUND('',#105,.T.);
#130=FACE_BOUND('',#106,.T.);
#131=FACE_BOUND('',#107,.T.);
#132=FACE_BOUND('',#108,.T.);
#133=FACE_BOUND('',#109,.T.);
#134=FACE_BOUND('',#110,.T.);
#135=FACE_BOUND('',#111,.T.);
#136=FACE_BOUND('',#112,.T.);
#137=FACE_BOUND('',#113,.T.);
#138=FACE_BOUND('',#114,.T.);
#139=FACE_BOUND('',#115,.T.);
#140=FACE_BOUND('',#116,.T.);
#141=CONICAL_SURFACE('',#173,8.425,0.9041035005406);
#142=CONICAL_SURFACE('',#190,11.5,0.785398163397624);
#143=CONICAL_SURFACE('',#192,10.3745084035013,0.0523598775598707);
#144=CONICAL_SURFACE('',#194,10.3205576141596,0.785398163397589);
#145=ADVANCED_FACE('',(#117,#118),#141,.T.);
#146=ADVANCED_FACE('',(#119,#120),#28,.T.);
#147=ADVANCED_FACE('',(#121,#122),#24,.T.);
#148=ADVANCED_FACE('',(#123,#124),#29,.T.);
#149=ADVANCED_FACE('',(#125,#126),#25,.T.);
#150=ADVANCED_FACE('',(#127,#128),#30,.T.);
#151=ADVANCED_FACE('',(#129),#26,.T.);
#152=ADVANCED_FACE('',(#130,#131),#31,.T.);
#153=ADVANCED_FACE('',(#132,#133),#142,.T.);
#154=ADVANCED_FACE('',(#134,#135),#143,.T.);
#155=ADVANCED_FACE('',(#136,#137),#144,.T.);
#156=ADVANCED_FACE('',(#138,#139),#32,.T.);
#157=ADVANCED_FACE('',(#140),#27,.F.);
#158=CLOSED_SHELL('',(#145,#146,#147,#148,#149,#150,#151,#152,#153,#154,
#155,#156,#157));
#159=STYLED_ITEM('',(#160),#167);
#160=PRESENTATION_STYLE_ASSIGNMENT((#161));
#161=SURFACE_STYLE_USAGE(.BOTH.,#162);
#162=SURFACE_SIDE_STYLE('',(#163));
#163=SURFACE_STYLE_FILL_AREA(#164);
#164=FILL_AREA_STYLE('',(#165));
#165=FILL_AREA_STYLE_COLOUR('',#166);
#166=COLOUR_RGB('',0.517647087574005,0.517647087574005,0.517647087574005);
#167=MANIFOLD_SOLID_BREP('',#158);
#168=SHAPE_DEFINITION_REPRESENTATION(#301,#170);
#169=SHAPE_DEFINITION_REPRESENTATION(#300,#171);
#170=SHAPE_REPRESENTATION('28364000',(#172),#294);
#171=SHAPE_REPRESENTATION('28364000',(#172,#198),#293);
#172=AXIS2_PLACEMENT_3D('',#253,#199,#200);
#173=AXIS2_PLACEMENT_3D('',#254,#201,#202);
#174=AXIS2_PLACEMENT_3D('',#255,#203,#204);
#175=AXIS2_PLACEMENT_3D('',#257,#205,#206);
#176=AXIS2_PLACEMENT_3D('',#259,#207,#208);
#177=AXIS2_PLACEMENT_3D('',#260,#209,#210);
#178=AXIS2_PLACEMENT_3D('',#262,#211,#212);
#179=AXIS2_PLACEMENT_3D('',#263,#213,#214);
#180=AXIS2_PLACEMENT_3D('',#265,#215,#216);
#181=AXIS2_PLACEMENT_3D('',#266,#217,#218);
#182=AXIS2_PLACEMENT_3D('',#268,#219,#220);
#183=AXIS2_PLACEMENT_3D('',#269,#221,#222);
#184=AXIS2_PLACEMENT_3D('',#271,#223,#224);
#185=AXIS2_PLACEMENT_3D('',#272,#225,#226);
#186=AXIS2_PLACEMENT_3D('',#274,#227,#228);
#187=AXIS2_PLACEMENT_3D('',#275,#229,#230);
#188=AXIS2_PLACEMENT_3D('',#276,#231,#232);
#189=AXIS2_PLACEMENT_3D('',#278,#233,#234);
#190=AXIS2_PLACEMENT_3D('',#280,#235,#236);
#191=AXIS2_PLACEMENT_3D('',#281,#237,#238);
#192=AXIS2_PLACEMENT_3D('',#283,#239,#240);
#193=AXIS2_PLACEMENT_3D('',#284,#241,#242);
#194=AXIS2_PLACEMENT_3D('',#286,#243,#244);
#195=AXIS2_PLACEMENT_3D('',#287,#245,#246);
#196=AXIS2_PLACEMENT_3D('',#289,#247,#248);
#197=AXIS2_PLACEMENT_3D('',#290,#249,#250);
#198=AXIS2_PLACEMENT_3D('',#291,#251,#252);
#199=DIRECTION('',(0.,0.,1.));
#200=DIRECTION('',(1.,0.,0.));
#201=DIRECTION('',(0.,0.,1.));
#202=DIRECTION('',(1.,0.,0.));
#203=DIRECTION('',(0.,0.,1.));
#204=DIRECTION('',(1.,0.,0.));
#205=DIRECTION('',(0.,0.,1.));
#206=DIRECTION('',(1.,0.,0.));
#207=DIRECTION('',(0.,0.,1.));
#208=DIRECTION('',(1.,0.,0.));
#209=DIRECTION('',(0.,0.,1.));
#210=DIRECTION('',(1.,0.,0.));
#211=DIRECTION('',(0.,0.,1.));
#212=DIRECTION('',(1.,0.,0.));
#213=DIRECTION('',(0.,0.,1.));
#214=DIRECTION('',(1.,0.,0.));
#215=DIRECTION('',(0.,0.,1.));
#216=DIRECTION('',(1.,0.,0.));
#217=DIRECTION('',(0.,0.,1.));
#218=DIRECTION('',(1.,0.,0.));
#219=DIRECTION('',(0.,0.,1.));
#220=DIRECTION('',(1.,0.,0.));
#221=DIRECTION('',(0.,0.,1.));
#222=DIRECTION('',(1.,0.,0.));
#223=DIRECTION('',(0.,0.,1.));
#224=DIRECTION('',(1.,0.,0.));
#225=DIRECTION('',(0.,0.,-1.));
#226=DIRECTION('',(-1.,0.,0.));
#227=DIRECTION('',(0.,0.,-1.));
#228=DIRECTION('',(-1.,0.,0.));
#229=DIRECTION('',(0.,0.,-1.));
#230=DIRECTION('',(-1.,0.,0.));
#231=DIRECTION('',(0.,0.,-1.));
#232=DIRECTION('',(-1.,0.,0.));
#233=DIRECTION('',(0.,0.,-1.));
#234=DIRECTION('',(-1.,0.,0.));
#235=DIRECTION('',(0.,0.,-1.));
#236=DIRECTION('',(-1.,0.,0.));
#237=DIRECTION('',(0.,0.,-1.));
#238=DIRECTION('',(-1.,0.,0.));
#239=DIRECTION('',(0.,0.,1.));
#240=DIRECTION('',(1.,0.,0.));
#241=DIRECTION('',(0.,0.,-1.));
#242=DIRECTION('',(-1.,0.,0.));
#243=DIRECTION('',(0.,0.,1.));
#244=DIRECTION('',(1.,0.,0.));
#245=DIRECTION('',(0.,0.,-1.));
#246=DIRECTION('',(-1.,0.,0.));
#247=DIRECTION('',(0.,0.,-1.));
#248=DIRECTION('',(-1.,0.,0.));
#249=DIRECTION('',(0.,0.,-1.));
#250=DIRECTION('',(-1.,0.,0.));
#251=DIRECTION('',(0.,0.,1.));
#252=DIRECTION('',(1.,0.,0.));
#253=CARTESIAN_POINT('',(0.,0.,0.));
#254=CARTESIAN_POINT('',(1.73472347597681E-15,4.33680868994202E-15,1466.35166122904));
#255=CARTESIAN_POINT('',(3.46944695195361E-15,0.,1465.15166122904));
#256=CARTESIAN_POINT('',(6.9,0.,1465.15166122904));
#257=CARTESIAN_POINT('',(5.3108834770151E-31,8.67361737988404E-15,1467.55166122904));
#258=CARTESIAN_POINT('',(9.95,8.67361737988404E-15,1467.55166122904));
#259=CARTESIAN_POINT('',(3.46944695195361E-15,0.,31.5));
#260=CARTESIAN_POINT('',(3.46944695195361E-15,0.,31.5));
#261=CARTESIAN_POINT('',(6.9,0.,31.5));
#262=CARTESIAN_POINT('',(3.85763741731417E-15,0.,31.5));
#263=CARTESIAN_POINT('',(0.,0.,31.5));
#264=CARTESIAN_POINT('',(7.5,0.,31.5));
#265=CARTESIAN_POINT('',(0.,0.,31.5));
#266=CARTESIAN_POINT('',(0.,0.,12.5));
#267=CARTESIAN_POINT('',(7.5,0.,12.5));
#268=CARTESIAN_POINT('',(10.5,0.,12.5));
#269=CARTESIAN_POINT('',(0.,0.,12.5));
#270=CARTESIAN_POINT('',(11.5000005600719,0.,12.5));
#271=CARTESIAN_POINT('',(0.,0.,31.5));
#272=CARTESIAN_POINT('',(0.,0.,0.));
#273=CARTESIAN_POINT('',(-11.5000005600719,0.,0.));
#274=CARTESIAN_POINT('',(0.,0.,-2.70904693127056E-15));
#275=CARTESIAN_POINT('',(5.3108834770151E-31,8.67361737988404E-15,1465.15166122904));
#276=CARTESIAN_POINT('',(5.3108834770151E-31,8.67361737988404E-15,1499.65166122904));
#277=CARTESIAN_POINT('',(-11.5,8.67361737988404E-15,1499.65166122904));
#278=CARTESIAN_POINT('',(5.3108834770151E-31,8.67361737988404E-15,1502.85166122904));
#279=CARTESIAN_POINT('',(-11.5,8.67361737988404E-15,1502.85166122904));
#280=CARTESIAN_POINT('',(5.3108834770151E-31,8.67361737988404E-15,1499.65166122904));
#281=CARTESIAN_POINT('',(5.3108834770151E-31,8.67361737988404E-15,1499.35166122904));
#282=CARTESIAN_POINT('',(-11.8,8.67361737988404E-15,1499.35166122904));
#283=CARTESIAN_POINT('',(5.3108834770151E-31,8.67361737988404E-15,1472.15166122904));
#284=CARTESIAN_POINT('',(5.3108834770151E-31,8.67361737988404E-15,1471.1222188432));
#285=CARTESIAN_POINT('',(-10.3205576141596,8.67361737988404E-15,1471.1222188432));
#286=CARTESIAN_POINT('',(5.3108834770151E-31,8.67361737988404E-15,1471.1222188432));
#287=CARTESIAN_POINT('',(5.3108834770151E-31,8.67361737988404E-15,1470.75166122904));
#288=CARTESIAN_POINT('',(-9.95000000000018,8.67361737988404E-15,1470.75166122904));
#289=CARTESIAN_POINT('',(5.3108834770151E-31,8.67361737988404E-15,1465.15166122904));
#290=CARTESIAN_POINT('',(3.46944695195361E-15,0.,1502.85166122904));
#291=CARTESIAN_POINT('',(0.,0.,0.));
#292=MECHANICAL_DESIGN_GEOMETRIC_PRESENTATION_REPRESENTATION('',(#159),
#293);
#293=(
GEOMETRIC_REPRESENTATION_CONTEXT(3)
GLOBAL_UNCERTAINTY_ASSIGNED_CONTEXT((#295))
GLOBAL_UNIT_ASSIGNED_CONTEXT((#299,#298,#297))
REPRESENTATION_CONTEXT('28364000','TOP_LEVEL_ASSEMBLY_PART')
);
#294=(
GEOMETRIC_REPRESENTATION_CONTEXT(3)
GLOBAL_UNCERTAINTY_ASSIGNED_CONTEXT((#296))
GLOBAL_UNIT_ASSIGNED_CONTEXT((#299,#298,#297))
REPRESENTATION_CONTEXT('28364000','COMPONENT_PART')
);
#295=UNCERTAINTY_MEASURE_WITH_UNIT(LENGTH_MEASURE(0.005),#299,
'DISTANCE_ACCURACY_VALUE','Maximum Tolerance applied to model');
#296=UNCERTAINTY_MEASURE_WITH_UNIT(LENGTH_MEASURE(0.005),#299,
'DISTANCE_ACCURACY_VALUE','Maximum Tolerance applied to model');
#297=(
NAMED_UNIT(*)
SI_UNIT($,.STERADIAN.)
SOLID_ANGLE_UNIT()
);
#298=(
NAMED_UNIT(*)
PLANE_ANGLE_UNIT()
SI_UNIT($,.RADIAN.)
);
#299=(
LENGTH_UNIT()
NAMED_UNIT(*)
SI_UNIT(.MILLI.,.METRE.)
);
#300=PRODUCT_DEFINITION_SHAPE('','',#303);
#301=PRODUCT_DEFINITION_SHAPE('','',#304);
#302=PRODUCT_DEFINITION_SHAPE(' ','NAUO PRDDFN',#19);
#303=PRODUCT_DEFINITION('','',#307,#305);
#304=PRODUCT_DEFINITION('','',#308,#306);
#305=PRODUCT_DEFINITION_CONTEXT('',#318,'design');
#306=PRODUCT_DEFINITION_CONTEXT('',#318,'design');
#307=PRODUCT_DEFINITION_FORMATION_WITH_SPECIFIED_SOURCE('','',#311,
 .NOT_KNOWN.);
#308=PRODUCT_DEFINITION_FORMATION_WITH_SPECIFIED_SOURCE('','',#312,
 .NOT_KNOWN.);
#309=PRODUCT_RELATED_PRODUCT_CATEGORY('','',(#311));
#310=PRODUCT_RELATED_PRODUCT_CATEGORY('','',(#312));
#311=PRODUCT('28364000','28364000','28364000',(#315));
#312=PRODUCT('28364000','28364000','28364000',(#316));
#313=PRODUCT_CATEGORY('','');
#314=PRODUCT_CATEGORY('','');
#315=PRODUCT_CONTEXT('',#318,'mechanical');
#316=PRODUCT_CONTEXT('',#318,'mechanical');
#317=APPLICATION_PROTOCOL_DEFINITION('international standard',
'automotive_design',2010,#318);
#318=APPLICATION_CONTEXT(
'core data for automotive mechanical design processes');
ENDSEC;
END-ISO-10303-21;
