ISO-10303-21;
HEADER;
/* Generated by software containing ST-Developer
 * from STEP Tools, Inc. (www.steptools.com) 
 */
/* OPTION: strings as raw bytes, not using required /X/ escapes */

FILE_DESCRIPTION(
/* description */ ('Unknown'),
/* implementation_level */ '2;1');

FILE_NAME(
/* name */ '26250000',
/* time_stamp */ '2022-08-26T15:09:03+02:00',
/* author */ ('Unknown'),
/* organization */ ('GROHE AG'),
/* preprocessor_version */ 'ST-DEVELOPER v16.7',
/* originating_system */ 'DEX',
/* authorisation */ $);

FILE_SCHEMA (('AUTOMOTIVE_DESIGN {1 0 10303 214 3 1 1}'));
ENDSEC;

DATA;
#10=PROPERTY_DEFINITION_REPRESENTATION(#14,#12);
#11=PROPERTY_DEFINITION_REPRESENTATION(#15,#13);
#12=REPRESENTATION('',(#16),#183);
#13=REPRESENTATION('',(#17),#183);
#14=PROPERTY_DEFINITION('pmi validation property','',#200);
#15=PROPERTY_DEFINITION('pmi validation property','',#200);
#16=VALUE_REPRESENTATION_ITEM('number of annotations',COUNT_MEASURE(0.));
#17=VALUE_REPRESENTATION_ITEM('number of views',COUNT_MEASURE(0.));
#18=CONTEXT_DEPENDENT_SHAPE_REPRESENTATION(#30,#202);
#19=CONTEXT_DEPENDENT_SHAPE_REPRESENTATION(#31,#204);
#20=CONTEXT_DEPENDENT_SHAPE_REPRESENTATION(#32,#206);
#21=CONTEXT_DEPENDENT_SHAPE_REPRESENTATION(#33,#208);
#22=CONTEXT_DEPENDENT_SHAPE_REPRESENTATION(#34,#210);
#23=CONTEXT_DEPENDENT_SHAPE_REPRESENTATION(#35,#212);
#24=NEXT_ASSEMBLY_USAGE_OCCURRENCE('id11','id11','id11',#213,#214,'');
#25=NEXT_ASSEMBLY_USAGE_OCCURRENCE('008_01_CR','008_01_CR','008_01_CR',
#213,#215,'');
#26=NEXT_ASSEMBLY_USAGE_OCCURRENCE('A4240529_GEH_GLEITE_01026000',
'A4240529_GEH_GLEITE_01026000','A4240529_GEH_GLEITE_01026000',#213,#216,
'');
#27=NEXT_ASSEMBLY_USAGE_OCCURRENCE('ALIAS BREP MODEL',
'ALIAS BREP MODEL','ALIAS BREP MODEL',#213,#217,'');
#28=NEXT_ASSEMBLY_USAGE_OCCURRENCE('ShowerElbowConnection',
'ShowerElbowConnection','ShowerElbowConnection',#213,#218,'');
#29=NEXT_ASSEMBLY_USAGE_OCCURRENCE('SKIN#2','SKIN#2','SKIN#2',#213,#219,
'');
#30=(
REPRESENTATION_RELATIONSHIP(' ',' ',#107,#108)
REPRESENTATION_RELATIONSHIP_WITH_TRANSFORMATION(#36)
SHAPE_REPRESENTATION_RELATIONSHIP()
);
#31=(
REPRESENTATION_RELATIONSHIP(' ',' ',#109,#108)
REPRESENTATION_RELATIONSHIP_WITH_TRANSFORMATION(#37)
SHAPE_REPRESENTATION_RELATIONSHIP()
);
#32=(
REPRESENTATION_RELATIONSHIP(' ',' ',#110,#108)
REPRESENTATION_RELATIONSHIP_WITH_TRANSFORMATION(#38)
SHAPE_REPRESENTATION_RELATIONSHIP()
);
#33=(
REPRESENTATION_RELATIONSHIP(' ',' ',#111,#108)
REPRESENTATION_RELATIONSHIP_WITH_TRANSFORMATION(#39)
SHAPE_REPRESENTATION_RELATIONSHIP()
);
#34=(
REPRESENTATION_RELATIONSHIP(' ',' ',#112,#108)
REPRESENTATION_RELATIONSHIP_WITH_TRANSFORMATION(#40)
SHAPE_REPRESENTATION_RELATIONSHIP()
);
#35=(
REPRESENTATION_RELATIONSHIP(' ',' ',#113,#108)
REPRESENTATION_RELATIONSHIP_WITH_TRANSFORMATION(#41)
SHAPE_REPRESENTATION_RELATIONSHIP()
);
#36=ITEM_DEFINED_TRANSFORMATION(' ',' ',#114,#124);
#37=ITEM_DEFINED_TRANSFORMATION(' ',' ',#114,#125);
#38=ITEM_DEFINED_TRANSFORMATION(' ',' ',#114,#126);
#39=ITEM_DEFINED_TRANSFORMATION(' ',' ',#114,#127);
#40=ITEM_DEFINED_TRANSFORMATION(' ',' ',#114,#128);
#41=ITEM_DEFINED_TRANSFORMATION(' ',' ',#114,#129);
#42=SHAPE_REPRESENTATION_RELATIONSHIP('','',#107,#43);
#43=ADVANCED_BREP_SHAPE_REPRESENTATION('',(#99),#184);
#44=CYLINDRICAL_SURFACE('',#123,11.5);
#45=TOROIDAL_SURFACE('',#117,10.5,1.);
#46=TOROIDAL_SURFACE('',#120,10.5,1.);
#47=ORIENTED_EDGE('',*,*,#55,.F.);
#48=ORIENTED_EDGE('',*,*,#56,.F.);
#49=ORIENTED_EDGE('',*,*,#57,.F.);
#50=ORIENTED_EDGE('',*,*,#55,.T.);
#51=ORIENTED_EDGE('',*,*,#58,.F.);
#52=ORIENTED_EDGE('',*,*,#57,.T.);
#53=ORIENTED_EDGE('',*,*,#56,.T.);
#54=ORIENTED_EDGE('',*,*,#58,.T.);
#55=EDGE_CURVE('',#59,#59,#63,.T.);
#56=EDGE_CURVE('',#60,#60,#64,.F.);
#57=EDGE_CURVE('',#61,#61,#65,.T.);
#58=EDGE_CURVE('',#62,#62,#66,.F.);
#59=VERTEX_POINT('',#165);
#60=VERTEX_POINT('',#168);
#61=VERTEX_POINT('',#170);
#62=VERTEX_POINT('',#173);
#63=CIRCLE('',#116,10.6);
#64=CIRCLE('',#118,11.5);
#65=CIRCLE('',#119,10.5);
#66=CIRCLE('',#121,11.5);
#67=EDGE_LOOP('',(#47));
#68=EDGE_LOOP('',(#48));
#69=EDGE_LOOP('',(#49));
#70=EDGE_LOOP('',(#50));
#71=EDGE_LOOP('',(#51));
#72=EDGE_LOOP('',(#52));
#73=EDGE_LOOP('',(#53));
#74=EDGE_LOOP('',(#54));
#75=FACE_BOUND('',#67,.T.);
#76=FACE_BOUND('',#68,.T.);
#77=FACE_BOUND('',#69,.T.);
#78=FACE_BOUND('',#70,.T.);
#79=FACE_BOUND('',#71,.T.);
#80=FACE_BOUND('',#72,.T.);
#81=FACE_BOUND('',#73,.T.);
#82=FACE_BOUND('',#74,.T.);
#83=PLANE('',#115);
#84=PLANE('',#122);
#85=ADVANCED_FACE('',(#75),#83,.F.);
#86=ADVANCED_FACE('',(#76,#77),#45,.T.);
#87=ADVANCED_FACE('',(#78,#79),#46,.T.);
#88=ADVANCED_FACE('',(#80),#84,.T.);
#89=ADVANCED_FACE('',(#81,#82),#44,.T.);
#90=CLOSED_SHELL('',(#85,#86,#87,#88,#89));
#91=STYLED_ITEM('',(#92),#99);
#92=PRESENTATION_STYLE_ASSIGNMENT((#93));
#93=SURFACE_STYLE_USAGE(.BOTH.,#94);
#94=SURFACE_SIDE_STYLE('',(#95));
#95=SURFACE_STYLE_FILL_AREA(#96);
#96=FILL_AREA_STYLE('',(#97));
#97=FILL_AREA_STYLE_COLOUR('',#98);
#98=COLOUR_RGB('',0.470588266849518,0.517647087574005,0.658823549747467);
#99=MANIFOLD_SOLID_BREP('',#90);
#100=SHAPE_DEFINITION_REPRESENTATION(#201,#107);
#101=SHAPE_DEFINITION_REPRESENTATION(#200,#108);
#102=SHAPE_DEFINITION_REPRESENTATION(#203,#109);
#103=SHAPE_DEFINITION_REPRESENTATION(#205,#110);
#104=SHAPE_DEFINITION_REPRESENTATION(#207,#111);
#105=SHAPE_DEFINITION_REPRESENTATION(#209,#112);
#106=SHAPE_DEFINITION_REPRESENTATION(#211,#113);
#107=SHAPE_REPRESENTATION('id11',(#114),#184);
#108=SHAPE_REPRESENTATION('26250000',(#114,#124,#125,#126,#127,#128,#129),
#183);
#109=SHAPE_REPRESENTATION('008_01_CR',(#114),#185);
#110=SHAPE_REPRESENTATION('A4240529_GEH_GLEITE_01026000',(#114),#186);
#111=SHAPE_REPRESENTATION('ALIAS BREP MODEL',(#114),#187);
#112=SHAPE_REPRESENTATION('ShowerElbowConnection',(#114),#188);
#113=SHAPE_REPRESENTATION('SKIN#2',(#114),#189);
#114=AXIS2_PLACEMENT_3D('',#162,#130,#131);
#115=AXIS2_PLACEMENT_3D('',#163,#132,#133);
#116=AXIS2_PLACEMENT_3D('',#164,#134,#135);
#117=AXIS2_PLACEMENT_3D('',#166,#136,#137);
#118=AXIS2_PLACEMENT_3D('',#167,#138,#139);
#119=AXIS2_PLACEMENT_3D('',#169,#140,#141);
#120=AXIS2_PLACEMENT_3D('',#171,#142,#143);
#121=AXIS2_PLACEMENT_3D('',#172,#144,#145);
#122=AXIS2_PLACEMENT_3D('',#174,#146,#147);
#123=AXIS2_PLACEMENT_3D('',#175,#148,#149);
#124=AXIS2_PLACEMENT_3D('',#176,#150,#151);
#125=AXIS2_PLACEMENT_3D('',#177,#152,#153);
#126=AXIS2_PLACEMENT_3D('',#178,#154,#155);
#127=AXIS2_PLACEMENT_3D('',#179,#156,#157);
#128=AXIS2_PLACEMENT_3D('',#180,#158,#159);
#129=AXIS2_PLACEMENT_3D('',#181,#160,#161);
#130=DIRECTION('',(0.,0.,1.));
#131=DIRECTION('',(1.,0.,0.));
#132=DIRECTION('',(5.05910700808861E-16,6.82415577186587E-16,1.));
#133=DIRECTION('',(-1.11022302462516E-16,1.,-6.82415577186588E-16));
#134=DIRECTION('',(5.05910700808861E-16,6.82415577186587E-16,1.));
#135=DIRECTION('',(-1.11022302462516E-16,1.,-6.82415577186588E-16));
#136=DIRECTION('',(5.05910700808861E-16,6.82415577186587E-16,1.));
#137=DIRECTION('',(-1.11022302462516E-16,1.,-6.82415577186588E-16));
#138=DIRECTION('',(5.05910700808861E-16,6.82415577186587E-16,1.));
#139=DIRECTION('',(-1.11022302462516E-16,1.,-6.82415577186588E-16));
#140=DIRECTION('',(5.05910700808861E-16,6.82415577186587E-16,1.));
#141=DIRECTION('',(-1.11022302462516E-16,1.,-6.82415577186588E-16));
#142=DIRECTION('',(-5.05910700808861E-16,-6.82415577186587E-16,-1.));
#143=DIRECTION('',(1.11022302462516E-16,-1.,6.82415577186588E-16));
#144=DIRECTION('',(-5.05910700808861E-16,-6.82415577186587E-16,-1.));
#145=DIRECTION('',(1.11022302462516E-16,-1.,6.82415577186588E-16));
#146=DIRECTION('',(5.05910700808861E-16,6.82415577186587E-16,1.));
#147=DIRECTION('',(-1.11022302462516E-16,1.,-6.82415577186588E-16));
#148=DIRECTION('',(5.05910700808861E-16,6.82415577186587E-16,1.));
#149=DIRECTION('',(-1.11022302462516E-16,1.,-6.82415577186588E-16));
#150=DIRECTION('',(0.,0.,1.));
#151=DIRECTION('',(1.,0.,0.));
#152=DIRECTION('',(0.,0.,1.));
#153=DIRECTION('',(1.,0.,0.));
#154=DIRECTION('',(0.,0.,1.));
#155=DIRECTION('',(1.,0.,0.));
#156=DIRECTION('',(0.,0.,1.));
#157=DIRECTION('',(1.,0.,0.));
#158=DIRECTION('',(0.,0.,1.));
#159=DIRECTION('',(1.,0.,0.));
#160=DIRECTION('',(0.,0.,1.));
#161=DIRECTION('',(1.,0.,0.));
#162=CARTESIAN_POINT('',(0.,0.,0.));
#163=CARTESIAN_POINT('',(49.0003570386677,338.976773205691,-90.5));
#164=CARTESIAN_POINT('',(49.0003570386677,338.976773205691,-90.5));
#165=CARTESIAN_POINT('',(49.0003570386677,349.576773205691,-90.5));
#166=CARTESIAN_POINT('',(49.0003570386677,338.976773205691,-79.));
#167=CARTESIAN_POINT('',(49.0003570386677,338.976773205691,-79.));
#168=CARTESIAN_POINT('',(49.0003570386677,350.476773205691,-79.));
#169=CARTESIAN_POINT('',(49.0003570386677,338.976773205691,-78.));
#170=CARTESIAN_POINT('',(49.0003570386677,349.476773205691,-78.));
#171=CARTESIAN_POINT('',(49.0003570386677,338.976773205691,-89.5050125628934));
#172=CARTESIAN_POINT('',(49.0003570386677,338.976773205691,-89.5050125628934));
#173=CARTESIAN_POINT('',(49.0003570386677,327.476773205691,-89.5050125628934));
#174=CARTESIAN_POINT('',(49.0003570386677,338.976773205691,-78.));
#175=CARTESIAN_POINT('',(49.0003570386677,338.976773205691,-63.));
#176=CARTESIAN_POINT('',(0.,0.,0.));
#177=CARTESIAN_POINT('',(0.,0.,0.));
#178=CARTESIAN_POINT('',(0.,0.,0.));
#179=CARTESIAN_POINT('',(0.,0.,0.));
#180=CARTESIAN_POINT('',(0.,0.,0.));
#181=CARTESIAN_POINT('',(0.,0.,0.));
#182=MECHANICAL_DESIGN_GEOMETRIC_PRESENTATION_REPRESENTATION('',(#91),#183);
#183=(
GEOMETRIC_REPRESENTATION_CONTEXT(3)
GLOBAL_UNCERTAINTY_ASSIGNED_CONTEXT((#190))
GLOBAL_UNIT_ASSIGNED_CONTEXT((#199,#198,#197))
REPRESENTATION_CONTEXT('26250000','TOP_LEVEL_ASSEMBLY_PART')
);
#184=(
GEOMETRIC_REPRESENTATION_CONTEXT(3)
GLOBAL_UNCERTAINTY_ASSIGNED_CONTEXT((#191))
GLOBAL_UNIT_ASSIGNED_CONTEXT((#199,#198,#197))
REPRESENTATION_CONTEXT('id11','COMPONENT_PART')
);
#185=(
GEOMETRIC_REPRESENTATION_CONTEXT(3)
GLOBAL_UNCERTAINTY_ASSIGNED_CONTEXT((#192))
GLOBAL_UNIT_ASSIGNED_CONTEXT((#199,#198,#197))
REPRESENTATION_CONTEXT('008_01_CR','COMPONENT_PART')
);
#186=(
GEOMETRIC_REPRESENTATION_CONTEXT(3)
GLOBAL_UNCERTAINTY_ASSIGNED_CONTEXT((#193))
GLOBAL_UNIT_ASSIGNED_CONTEXT((#199,#198,#197))
REPRESENTATION_CONTEXT('A4240529_GEH_GLEITE_01026000','COMPONENT_PART')
);
#187=(
GEOMETRIC_REPRESENTATION_CONTEXT(3)
GLOBAL_UNCERTAINTY_ASSIGNED_CONTEXT((#194))
GLOBAL_UNIT_ASSIGNED_CONTEXT((#199,#198,#197))
REPRESENTATION_CONTEXT('ALIAS BREP MODEL','COMPONENT_PART')
);
#188=(
GEOMETRIC_REPRESENTATION_CONTEXT(3)
GLOBAL_UNCERTAINTY_ASSIGNED_CONTEXT((#195))
GLOBAL_UNIT_ASSIGNED_CONTEXT((#199,#198,#197))
REPRESENTATION_CONTEXT('ShowerElbowConnection','COMPONENT_PART')
);
#189=(
GEOMETRIC_REPRESENTATION_CONTEXT(3)
GLOBAL_UNCERTAINTY_ASSIGNED_CONTEXT((#196))
GLOBAL_UNIT_ASSIGNED_CONTEXT((#199,#198,#197))
REPRESENTATION_CONTEXT('SKIN#2','COMPONENT_PART')
);
#190=UNCERTAINTY_MEASURE_WITH_UNIT(LENGTH_MEASURE(0.005),#199,
'DISTANCE_ACCURACY_VALUE','Maximum Tolerance applied to model');
#191=UNCERTAINTY_MEASURE_WITH_UNIT(LENGTH_MEASURE(0.005),#199,
'DISTANCE_ACCURACY_VALUE','Maximum Tolerance applied to model');
#192=UNCERTAINTY_MEASURE_WITH_UNIT(LENGTH_MEASURE(0.005),#199,
'DISTANCE_ACCURACY_VALUE','Maximum Tolerance applied to model');
#193=UNCERTAINTY_MEASURE_WITH_UNIT(LENGTH_MEASURE(0.005),#199,
'DISTANCE_ACCURACY_VALUE','Maximum Tolerance applied to model');
#194=UNCERTAINTY_MEASURE_WITH_UNIT(LENGTH_MEASURE(0.005),#199,
'DISTANCE_ACCURACY_VALUE','Maximum Tolerance applied to model');
#195=UNCERTAINTY_MEASURE_WITH_UNIT(LENGTH_MEASURE(0.005),#199,
'DISTANCE_ACCURACY_VALUE','Maximum Tolerance applied to model');
#196=UNCERTAINTY_MEASURE_WITH_UNIT(LENGTH_MEASURE(0.005),#199,
'DISTANCE_ACCURACY_VALUE','Maximum Tolerance applied to model');
#197=(
NAMED_UNIT(*)
SI_UNIT($,.STERADIAN.)
SOLID_ANGLE_UNIT()
);
#198=(
NAMED_UNIT(*)
PLANE_ANGLE_UNIT()
SI_UNIT($,.RADIAN.)
);
#199=(
LENGTH_UNIT()
NAMED_UNIT(*)
SI_UNIT(.MILLI.,.METRE.)
);
#200=PRODUCT_DEFINITION_SHAPE('','',#213);
#201=PRODUCT_DEFINITION_SHAPE('','',#214);
#202=PRODUCT_DEFINITION_SHAPE(' ','NAUO PRDDFN',#24);
#203=PRODUCT_DEFINITION_SHAPE('','',#215);
#204=PRODUCT_DEFINITION_SHAPE(' ','NAUO PRDDFN',#25);
#205=PRODUCT_DEFINITION_SHAPE('','',#216);
#206=PRODUCT_DEFINITION_SHAPE(' ','NAUO PRDDFN',#26);
#207=PRODUCT_DEFINITION_SHAPE('','',#217);
#208=PRODUCT_DEFINITION_SHAPE(' ','NAUO PRDDFN',#27);
#209=PRODUCT_DEFINITION_SHAPE('','',#218);
#210=PRODUCT_DEFINITION_SHAPE(' ','NAUO PRDDFN',#28);
#211=PRODUCT_DEFINITION_SHAPE('','',#219);
#212=PRODUCT_DEFINITION_SHAPE(' ','NAUO PRDDFN',#29);
#213=PRODUCT_DEFINITION('','',#227,#220);
#214=PRODUCT_DEFINITION('','',#228,#221);
#215=PRODUCT_DEFINITION('','',#229,#222);
#216=PRODUCT_DEFINITION('','',#230,#223);
#217=PRODUCT_DEFINITION('','',#231,#224);
#218=PRODUCT_DEFINITION('','',#232,#225);
#219=PRODUCT_DEFINITION('','',#233,#226);
#220=PRODUCT_DEFINITION_CONTEXT('',#263,'design');
#221=PRODUCT_DEFINITION_CONTEXT('',#263,'design');
#222=PRODUCT_DEFINITION_CONTEXT('',#263,'design');
#223=PRODUCT_DEFINITION_CONTEXT('',#263,'design');
#224=PRODUCT_DEFINITION_CONTEXT('',#263,'design');
#225=PRODUCT_DEFINITION_CONTEXT('',#263,'design');
#226=PRODUCT_DEFINITION_CONTEXT('',#263,'design');
#227=PRODUCT_DEFINITION_FORMATION_WITH_SPECIFIED_SOURCE('','',#241,
 .NOT_KNOWN.);
#228=PRODUCT_DEFINITION_FORMATION_WITH_SPECIFIED_SOURCE('','',#242,
 .NOT_KNOWN.);
#229=PRODUCT_DEFINITION_FORMATION_WITH_SPECIFIED_SOURCE('','',#243,
 .NOT_KNOWN.);
#230=PRODUCT_DEFINITION_FORMATION_WITH_SPECIFIED_SOURCE('','',#244,
 .NOT_KNOWN.);
#231=PRODUCT_DEFINITION_FORMATION_WITH_SPECIFIED_SOURCE('','',#245,
 .NOT_KNOWN.);
#232=PRODUCT_DEFINITION_FORMATION_WITH_SPECIFIED_SOURCE('','',#246,
 .NOT_KNOWN.);
#233=PRODUCT_DEFINITION_FORMATION_WITH_SPECIFIED_SOURCE('','',#247,
 .NOT_KNOWN.);
#234=PRODUCT_RELATED_PRODUCT_CATEGORY('','',(#241));
#235=PRODUCT_RELATED_PRODUCT_CATEGORY('','',(#242));
#236=PRODUCT_RELATED_PRODUCT_CATEGORY('','',(#243));
#237=PRODUCT_RELATED_PRODUCT_CATEGORY('','',(#244));
#238=PRODUCT_RELATED_PRODUCT_CATEGORY('','',(#245));
#239=PRODUCT_RELATED_PRODUCT_CATEGORY('','',(#246));
#240=PRODUCT_RELATED_PRODUCT_CATEGORY('','',(#247));
#241=PRODUCT('26250000','26250000','26250000',(#255));
#242=PRODUCT('id11','id11','id11',(#256));
#243=PRODUCT('008_01_CR','008_01_CR','008_01_CR',(#257));
#244=PRODUCT('A4240529_GEH_GLEITE_01026000',
'A4240529_GEH_GLEITE_01026000','A4240529_GEH_GLEITE_01026000',(#258));
#245=PRODUCT('ALIAS BREP MODEL','ALIAS BREP MODEL','ALIAS BREP MODEL',(#259));
#246=PRODUCT('ShowerElbowConnection','ShowerElbowConnection',
'ShowerElbowConnection',(#260));
#247=PRODUCT('SKIN#2','SKIN#2','SKIN#2',(#261));
#248=PRODUCT_CATEGORY('','');
#249=PRODUCT_CATEGORY('','');
#250=PRODUCT_CATEGORY('','');
#251=PRODUCT_CATEGORY('','');
#252=PRODUCT_CATEGORY('','');
#253=PRODUCT_CATEGORY('','');
#254=PRODUCT_CATEGORY('','');
#255=PRODUCT_CONTEXT('',#263,'mechanical');
#256=PRODUCT_CONTEXT('',#263,'mechanical');
#257=PRODUCT_CONTEXT('',#263,'mechanical');
#258=PRODUCT_CONTEXT('',#263,'mechanical');
#259=PRODUCT_CONTEXT('',#263,'mechanical');
#260=PRODUCT_CONTEXT('',#263,'mechanical');
#261=PRODUCT_CONTEXT('',#263,'mechanical');
#262=APPLICATION_PROTOCOL_DEFINITION('international standard',
'automotive_design',2010,#263);
#263=APPLICATION_CONTEXT(
'core data for automotive mechanical design processes');
ENDSEC;
END-ISO-10303-21;
