ISO-10303-21;
HEADER;
/* Generated by software containing ST-Developer
 * from STEP Tools, Inc. (www.steptools.com) 
 */
/* OPTION: strings as raw bytes, not using required /X/ escapes */

FILE_DESCRIPTION(
/* description */ ('Unknown'),
/* implementation_level */ '2;1');

FILE_NAME(
/* name */ '23445000',
/* time_stamp */ '2022-08-26T14:50:01+02:00',
/* author */ ('Unknown'),
/* organization */ ('GROHE AG'),
/* preprocessor_version */ 'ST-DEVELOPER v16.7',
/* originating_system */ 'DEX',
/* authorisation */ $);

FILE_SCHEMA (('AUTOMOTIVE_DESIGN {1 0 10303 214 3 1 1}'));
ENDSEC;

DATA;
#10=PROPERTY_DEFINITION_REPRESENTATION(#14,#12);
#11=PROPERTY_DEFINITION_REPRESENTATION(#15,#13);
#12=REPRESENTATION('',(#16),#375);
#13=REPRESENTATION('',(#17),#375);
#14=PROPERTY_DEFINITION('pmi validation property','',#390);
#15=PROPERTY_DEFINITION('pmi validation property','',#390);
#16=VALUE_REPRESENTATION_ITEM('number of annotations',COUNT_MEASURE(0.));
#17=VALUE_REPRESENTATION_ITEM('number of views',COUNT_MEASURE(0.));
#18=CONTEXT_DEPENDENT_SHAPE_REPRESENTATION(#28,#392);
#19=CONTEXT_DEPENDENT_SHAPE_REPRESENTATION(#29,#394);
#20=CONTEXT_DEPENDENT_SHAPE_REPRESENTATION(#30,#396);
#21=CONTEXT_DEPENDENT_SHAPE_REPRESENTATION(#31,#398);
#22=CONTEXT_DEPENDENT_SHAPE_REPRESENTATION(#32,#400);
#23=NEXT_ASSEMBLY_USAGE_OCCURRENCE('23445000','23445000','23445000',#401,
#402,'');
#24=NEXT_ASSEMBLY_USAGE_OCCURRENCE('id51','id51','id51',#401,#403,'');
#25=NEXT_ASSEMBLY_USAGE_OCCURRENCE('1_1','1_1','1_1',#401,#404,'');
#26=NEXT_ASSEMBLY_USAGE_OCCURRENCE('401809','401809','401809',#401,#405,
'');
#27=NEXT_ASSEMBLY_USAGE_OCCURRENCE('square#9','square#9','square#9',#401,
#406,'');
#28=(
REPRESENTATION_RELATIONSHIP(' ',' ',#224,#225)
REPRESENTATION_RELATIONSHIP_WITH_TRANSFORMATION(#33)
SHAPE_REPRESENTATION_RELATIONSHIP()
);
#29=(
REPRESENTATION_RELATIONSHIP(' ',' ',#226,#225)
REPRESENTATION_RELATIONSHIP_WITH_TRANSFORMATION(#34)
SHAPE_REPRESENTATION_RELATIONSHIP()
);
#30=(
REPRESENTATION_RELATIONSHIP(' ',' ',#227,#225)
REPRESENTATION_RELATIONSHIP_WITH_TRANSFORMATION(#35)
SHAPE_REPRESENTATION_RELATIONSHIP()
);
#31=(
REPRESENTATION_RELATIONSHIP(' ',' ',#228,#225)
REPRESENTATION_RELATIONSHIP_WITH_TRANSFORMATION(#36)
SHAPE_REPRESENTATION_RELATIONSHIP()
);
#32=(
REPRESENTATION_RELATIONSHIP(' ',' ',#229,#225)
REPRESENTATION_RELATIONSHIP_WITH_TRANSFORMATION(#37)
SHAPE_REPRESENTATION_RELATIONSHIP()
);
#33=ITEM_DEFINED_TRANSFORMATION(' ',' ',#230,#249);
#34=ITEM_DEFINED_TRANSFORMATION(' ',' ',#230,#250);
#35=ITEM_DEFINED_TRANSFORMATION(' ',' ',#230,#251);
#36=ITEM_DEFINED_TRANSFORMATION(' ',' ',#230,#252);
#37=ITEM_DEFINED_TRANSFORMATION(' ',' ',#230,#253);
#38=SHAPE_REPRESENTATION_RELATIONSHIP('','',#224,#39);
#39=ADVANCED_BREP_SHAPE_REPRESENTATION('',(#217),#376);
#40=PLANE('',#234);
#41=PLANE('',#238);
#42=PLANE('',#242);
#43=PLANE('',#246);
#44=PLANE('',#247);
#45=PLANE('',#248);
#46=LINE('',#323,#62);
#47=LINE('',#327,#63);
#48=LINE('',#329,#64);
#49=LINE('',#331,#65);
#50=LINE('',#333,#66);
#51=LINE('',#337,#67);
#52=LINE('',#341,#68);
#53=LINE('',#343,#69);
#54=LINE('',#345,#70);
#55=LINE('',#349,#71);
#56=LINE('',#353,#72);
#57=LINE('',#355,#73);
#58=LINE('',#357,#74);
#59=LINE('',#361,#75);
#60=LINE('',#365,#76);
#61=LINE('',#366,#77);
#62=VECTOR('',#260,1000.);
#63=VECTOR('',#263,1000.);
#64=VECTOR('',#266,1000.);
#65=VECTOR('',#267,1000.);
#66=VECTOR('',#268,1000.);
#67=VECTOR('',#273,1000.);
#68=VECTOR('',#278,1000.);
#69=VECTOR('',#279,1000.);
#70=VECTOR('',#280,1000.);
#71=VECTOR('',#285,1000.);
#72=VECTOR('',#290,1000.);
#73=VECTOR('',#291,1000.);
#74=VECTOR('',#292,1000.);
#75=VECTOR('',#297,1000.);
#76=VECTOR('',#302,1000.);
#77=VECTOR('',#303,1000.);
#78=ORIENTED_EDGE('',*,*,#126,.F.);
#79=ORIENTED_EDGE('',*,*,#127,.F.);
#80=ORIENTED_EDGE('',*,*,#128,.F.);
#81=ORIENTED_EDGE('',*,*,#129,.T.);
#82=ORIENTED_EDGE('',*,*,#130,.F.);
#83=ORIENTED_EDGE('',*,*,#131,.F.);
#84=ORIENTED_EDGE('',*,*,#132,.F.);
#85=ORIENTED_EDGE('',*,*,#127,.T.);
#86=ORIENTED_EDGE('',*,*,#133,.F.);
#87=ORIENTED_EDGE('',*,*,#134,.F.);
#88=ORIENTED_EDGE('',*,*,#135,.F.);
#89=ORIENTED_EDGE('',*,*,#131,.T.);
#90=ORIENTED_EDGE('',*,*,#136,.F.);
#91=ORIENTED_EDGE('',*,*,#137,.F.);
#92=ORIENTED_EDGE('',*,*,#138,.F.);
#93=ORIENTED_EDGE('',*,*,#134,.T.);
#94=ORIENTED_EDGE('',*,*,#139,.F.);
#95=ORIENTED_EDGE('',*,*,#140,.F.);
#96=ORIENTED_EDGE('',*,*,#141,.F.);
#97=ORIENTED_EDGE('',*,*,#137,.T.);
#98=ORIENTED_EDGE('',*,*,#142,.F.);
#99=ORIENTED_EDGE('',*,*,#143,.F.);
#100=ORIENTED_EDGE('',*,*,#144,.F.);
#101=ORIENTED_EDGE('',*,*,#140,.T.);
#102=ORIENTED_EDGE('',*,*,#145,.F.);
#103=ORIENTED_EDGE('',*,*,#146,.F.);
#104=ORIENTED_EDGE('',*,*,#147,.F.);
#105=ORIENTED_EDGE('',*,*,#143,.T.);
#106=ORIENTED_EDGE('',*,*,#148,.F.);
#107=ORIENTED_EDGE('',*,*,#129,.F.);
#108=ORIENTED_EDGE('',*,*,#149,.F.);
#109=ORIENTED_EDGE('',*,*,#146,.T.);
#110=ORIENTED_EDGE('',*,*,#128,.T.);
#111=ORIENTED_EDGE('',*,*,#132,.T.);
#112=ORIENTED_EDGE('',*,*,#135,.T.);
#113=ORIENTED_EDGE('',*,*,#138,.T.);
#114=ORIENTED_EDGE('',*,*,#141,.T.);
#115=ORIENTED_EDGE('',*,*,#144,.T.);
#116=ORIENTED_EDGE('',*,*,#147,.T.);
#117=ORIENTED_EDGE('',*,*,#149,.T.);
#118=ORIENTED_EDGE('',*,*,#130,.T.);
#119=ORIENTED_EDGE('',*,*,#126,.T.);
#120=ORIENTED_EDGE('',*,*,#148,.T.);
#121=ORIENTED_EDGE('',*,*,#145,.T.);
#122=ORIENTED_EDGE('',*,*,#142,.T.);
#123=ORIENTED_EDGE('',*,*,#139,.T.);
#124=ORIENTED_EDGE('',*,*,#136,.T.);
#125=ORIENTED_EDGE('',*,*,#133,.T.);
#126=EDGE_CURVE('',#150,#151,#166,.T.);
#127=EDGE_CURVE('',#152,#150,#46,.T.);
#128=EDGE_CURVE('',#153,#152,#167,.T.);
#129=EDGE_CURVE('',#153,#151,#47,.T.);
#130=EDGE_CURVE('',#154,#150,#48,.F.);
#131=EDGE_CURVE('',#155,#154,#49,.T.);
#132=EDGE_CURVE('',#152,#155,#50,.F.);
#133=EDGE_CURVE('',#156,#154,#168,.T.);
#134=EDGE_CURVE('',#157,#156,#51,.T.);
#135=EDGE_CURVE('',#155,#157,#169,.T.);
#136=EDGE_CURVE('',#158,#156,#52,.F.);
#137=EDGE_CURVE('',#159,#158,#53,.T.);
#138=EDGE_CURVE('',#157,#159,#54,.F.);
#139=EDGE_CURVE('',#160,#158,#170,.T.);
#140=EDGE_CURVE('',#161,#160,#55,.T.);
#141=EDGE_CURVE('',#159,#161,#171,.T.);
#142=EDGE_CURVE('',#162,#160,#56,.F.);
#143=EDGE_CURVE('',#163,#162,#57,.T.);
#144=EDGE_CURVE('',#161,#163,#58,.F.);
#145=EDGE_CURVE('',#164,#162,#172,.T.);
#146=EDGE_CURVE('',#165,#164,#59,.T.);
#147=EDGE_CURVE('',#163,#165,#173,.T.);
#148=EDGE_CURVE('',#151,#164,#60,.F.);
#149=EDGE_CURVE('',#165,#153,#61,.F.);
#150=VERTEX_POINT('',#321);
#151=VERTEX_POINT('',#322);
#152=VERTEX_POINT('',#324);
#153=VERTEX_POINT('',#326);
#154=VERTEX_POINT('',#330);
#155=VERTEX_POINT('',#332);
#156=VERTEX_POINT('',#336);
#157=VERTEX_POINT('',#338);
#158=VERTEX_POINT('',#342);
#159=VERTEX_POINT('',#344);
#160=VERTEX_POINT('',#348);
#161=VERTEX_POINT('',#350);
#162=VERTEX_POINT('',#354);
#163=VERTEX_POINT('',#356);
#164=VERTEX_POINT('',#360);
#165=VERTEX_POINT('',#362);
#166=CIRCLE('',#232,1.58254626441848);
#167=CIRCLE('',#233,1.51273132209241);
#168=CIRCLE('',#236,1.58254626441848);
#169=CIRCLE('',#237,1.51273132209241);
#170=CIRCLE('',#240,1.58254626441848);
#171=CIRCLE('',#241,1.51273132209241);
#172=CIRCLE('',#244,1.58254626441848);
#173=CIRCLE('',#245,1.51273132209241);
#174=EDGE_LOOP('',(#78,#79,#80,#81));
#175=EDGE_LOOP('',(#82,#83,#84,#85));
#176=EDGE_LOOP('',(#86,#87,#88,#89));
#177=EDGE_LOOP('',(#90,#91,#92,#93));
#178=EDGE_LOOP('',(#94,#95,#96,#97));
#179=EDGE_LOOP('',(#98,#99,#100,#101));
#180=EDGE_LOOP('',(#102,#103,#104,#105));
#181=EDGE_LOOP('',(#106,#107,#108,#109));
#182=EDGE_LOOP('',(#110,#111,#112,#113,#114,#115,#116,#117));
#183=EDGE_LOOP('',(#118,#119,#120,#121,#122,#123,#124,#125));
#184=FACE_BOUND('',#174,.T.);
#185=FACE_BOUND('',#175,.T.);
#186=FACE_BOUND('',#176,.T.);
#187=FACE_BOUND('',#177,.T.);
#188=FACE_BOUND('',#178,.T.);
#189=FACE_BOUND('',#179,.T.);
#190=FACE_BOUND('',#180,.T.);
#191=FACE_BOUND('',#181,.T.);
#192=FACE_BOUND('',#182,.T.);
#193=FACE_BOUND('',#183,.T.);
#194=CONICAL_SURFACE('',#231,1.6,0.00872664625997165);
#195=CONICAL_SURFACE('',#235,1.6,0.00872664625997165);
#196=CONICAL_SURFACE('',#239,1.6,0.00872664625997165);
#197=CONICAL_SURFACE('',#243,1.6,0.00872664625997165);
#198=ADVANCED_FACE('',(#184),#194,.T.);
#199=ADVANCED_FACE('',(#185),#40,.T.);
#200=ADVANCED_FACE('',(#186),#195,.T.);
#201=ADVANCED_FACE('',(#187),#41,.T.);
#202=ADVANCED_FACE('',(#188),#196,.T.);
#203=ADVANCED_FACE('',(#189),#42,.T.);
#204=ADVANCED_FACE('',(#190),#197,.T.);
#205=ADVANCED_FACE('',(#191),#43,.T.);
#206=ADVANCED_FACE('',(#192),#44,.T.);
#207=ADVANCED_FACE('',(#193),#45,.T.);
#208=CLOSED_SHELL('',(#198,#199,#200,#201,#202,#203,#204,#205,#206,#207));
#209=STYLED_ITEM('',(#210),#217);
#210=PRESENTATION_STYLE_ASSIGNMENT((#211));
#211=SURFACE_STYLE_USAGE(.BOTH.,#212);
#212=SURFACE_SIDE_STYLE('',(#213));
#213=SURFACE_STYLE_FILL_AREA(#214);
#214=FILL_AREA_STYLE('',(#215));
#215=FILL_AREA_STYLE_COLOUR('',#216);
#216=COLOUR_RGB('',0.517647087574005,0.517647087574005,0.517647087574005);
#217=MANIFOLD_SOLID_BREP('',#208);
#218=SHAPE_DEFINITION_REPRESENTATION(#391,#224);
#219=SHAPE_DEFINITION_REPRESENTATION(#390,#225);
#220=SHAPE_DEFINITION_REPRESENTATION(#393,#226);
#221=SHAPE_DEFINITION_REPRESENTATION(#395,#227);
#222=SHAPE_DEFINITION_REPRESENTATION(#397,#228);
#223=SHAPE_DEFINITION_REPRESENTATION(#399,#229);
#224=SHAPE_REPRESENTATION('23445000',(#230),#376);
#225=SHAPE_REPRESENTATION('23445000',(#230,#249,#250,#251,#252,#253),#375);
#226=SHAPE_REPRESENTATION('id51',(#230),#377);
#227=SHAPE_REPRESENTATION('1_1',(#230),#378);
#228=SHAPE_REPRESENTATION('401809',(#230),#379);
#229=SHAPE_REPRESENTATION('square#9',(#230),#380);
#230=AXIS2_PLACEMENT_3D('',#318,#254,#255);
#231=AXIS2_PLACEMENT_3D('',#319,#256,#257);
#232=AXIS2_PLACEMENT_3D('',#320,#258,#259);
#233=AXIS2_PLACEMENT_3D('',#325,#261,#262);
#234=AXIS2_PLACEMENT_3D('',#328,#264,#265);
#235=AXIS2_PLACEMENT_3D('',#334,#269,#270);
#236=AXIS2_PLACEMENT_3D('',#335,#271,#272);
#237=AXIS2_PLACEMENT_3D('',#339,#274,#275);
#238=AXIS2_PLACEMENT_3D('',#340,#276,#277);
#239=AXIS2_PLACEMENT_3D('',#346,#281,#282);
#240=AXIS2_PLACEMENT_3D('',#347,#283,#284);
#241=AXIS2_PLACEMENT_3D('',#351,#286,#287);
#242=AXIS2_PLACEMENT_3D('',#352,#288,#289);
#243=AXIS2_PLACEMENT_3D('',#358,#293,#294);
#244=AXIS2_PLACEMENT_3D('',#359,#295,#296);
#245=AXIS2_PLACEMENT_3D('',#363,#298,#299);
#246=AXIS2_PLACEMENT_3D('',#364,#300,#301);
#247=AXIS2_PLACEMENT_3D('',#367,#304,#305);
#248=AXIS2_PLACEMENT_3D('',#368,#306,#307);
#249=AXIS2_PLACEMENT_3D('',#369,#308,#309);
#250=AXIS2_PLACEMENT_3D('',#370,#310,#311);
#251=AXIS2_PLACEMENT_3D('',#371,#312,#313);
#252=AXIS2_PLACEMENT_3D('',#372,#314,#315);
#253=AXIS2_PLACEMENT_3D('',#373,#316,#317);
#254=DIRECTION('',(0.,0.,1.));
#255=DIRECTION('',(1.,0.,0.));
#256=DIRECTION('',(-4.12080840320726E-18,-3.14689892735064E-16,-1.));
#257=DIRECTION('',(4.9960036108132E-16,1.,-1.31036860594261E-16));
#258=DIRECTION('',(-4.12080840320726E-18,-3.14689892735064E-16,-1.));
#259=DIRECTION('',(-4.9960036108132E-16,-1.,1.31036860594261E-16));
#260=DIRECTION('',(0.00872653549837393,-3.1649448542737E-16,-0.999961923064171));
#261=DIRECTION('',(4.12080840320726E-18,3.14689892735064E-16,1.));
#262=DIRECTION('',(4.9960036108132E-16,1.,-1.31036860594261E-16));
#263=DIRECTION('',(-8.48043178142671E-18,-0.00872653549837425,-0.999961923064171));
#264=DIRECTION('',(0.999961923064171,-2.05412738242747E-16,0.00872653549837411));
#265=DIRECTION('',(0.00872653549837393,-3.1649448542737E-16,-0.999961923064171));
#266=DIRECTION('',(4.9960036108132E-16,1.,-1.31036860594261E-16));
#267=DIRECTION('',(0.00872653549837393,-3.1649448542737E-16,-0.999961923064171));
#268=DIRECTION('',(-4.9960036108132E-16,-1.,1.31036860594261E-16));
#269=DIRECTION('',(-4.12080840320726E-18,-3.14689892735064E-16,-1.));
#270=DIRECTION('',(4.9960036108132E-16,1.,-1.31036860594261E-16));
#271=DIRECTION('',(-4.12080840320726E-18,-3.14689892735064E-16,-1.));
#272=DIRECTION('',(-4.9960036108132E-16,-1.,1.31036860594261E-16));
#273=DIRECTION('',(2.39128790526446E-19,0.00872653549837362,-0.999961923064171));
#274=DIRECTION('',(4.12080840320726E-18,3.14689892735064E-16,1.));
#275=DIRECTION('',(4.9960036108132E-16,1.,-1.31036860594261E-16));
#276=DIRECTION('',(4.99617298211244E-16,0.999961923064171,0.0087265354983738));
#277=DIRECTION('',(2.39128790526446E-19,0.00872653549837362,-0.999961923064171));
#278=DIRECTION('',(-1.,2.08166817117217E-16,-1.74968093086656E-16));
#279=DIRECTION('',(-1.86835287006913E-17,0.00872653549837362,-0.999961923064171));
#280=DIRECTION('',(1.,-2.08166817117217E-16,1.74968093086656E-16));
#281=DIRECTION('',(-4.12080840320726E-18,-3.14689892735064E-16,-1.));
#282=DIRECTION('',(4.9960036108132E-16,1.,-1.31036860594261E-16));
#283=DIRECTION('',(-4.12080840320726E-18,-3.14689892735064E-16,-1.));
#284=DIRECTION('',(-4.9960036108132E-16,-1.,1.31036860594261E-16));
#285=DIRECTION('',(-0.00872653549837394,-3.12861335189056E-16,-0.999961923064171));
#286=DIRECTION('',(4.12080840320726E-18,3.14689892735064E-16,1.));
#287=DIRECTION('',(4.9960036108132E-16,1.,-1.31036860594261E-16));
#288=DIRECTION('',(-0.999961923064171,2.10905043282612E-16,0.00872653549837376));
#289=DIRECTION('',(0.00872653549837394,3.12861335189056E-16,0.999961923064171));
#290=DIRECTION('',(-4.9960036108132E-16,-1.,1.31036860594261E-16));
#291=DIRECTION('',(-0.00872653549837394,-3.31783992680274E-16,-0.999961923064171));
#292=DIRECTION('',(4.9960036108132E-16,1.,-1.31036860594261E-16));
#293=DIRECTION('',(-4.12080840320726E-18,-3.14689892735064E-16,-1.));
#294=DIRECTION('',(4.9960036108132E-16,1.,-1.31036860594261E-16));
#295=DIRECTION('',(-4.12080840320726E-18,-3.14689892735064E-16,-1.));
#296=DIRECTION('',(-4.9960036108132E-16,-1.,1.31036860594261E-16));
#297=DIRECTION('',(-9.10084678113877E-18,-0.00872653549837425,-0.999961923064171));
#298=DIRECTION('',(4.12080840320726E-18,3.14689892735064E-16,1.));
#299=DIRECTION('',(4.9960036108132E-16,1.,-1.31036860594261E-16));
#300=DIRECTION('',(-5.706378947866E-16,-0.999961923064171,0.00872653549837407));
#301=DIRECTION('',(8.48043178142671E-18,0.00872653549837425,0.999961923064171));
#302=DIRECTION('',(1.,-2.79262041542496E-16,1.74968093086656E-16));
#303=DIRECTION('',(-1.,2.79262041542496E-16,-1.74968093086656E-16));
#304=DIRECTION('',(4.12080840320726E-18,3.14689892735064E-16,1.));
#305=DIRECTION('',(4.9960036108132E-16,1.,-1.31036860594261E-16));
#306=DIRECTION('',(-4.12080840320726E-18,-3.14689892735064E-16,-1.));
#307=DIRECTION('',(-4.9960036108132E-16,-1.,1.31036860594261E-16));
#308=DIRECTION('',(0.,0.,1.));
#309=DIRECTION('',(1.,0.,0.));
#310=DIRECTION('',(0.,0.,1.));
#311=DIRECTION('',(1.,0.,0.));
#312=DIRECTION('',(0.,0.,1.));
#313=DIRECTION('',(1.,0.,0.));
#314=DIRECTION('',(0.,0.,1.));
#315=DIRECTION('',(1.,0.,0.));
#316=DIRECTION('',(0.,0.,1.));
#317=DIRECTION('',(1.,0.,0.));
#318=CARTESIAN_POINT('',(0.,0.,0.));
#319=CARTESIAN_POINT('',(24.4,-24.4,-10.));
#320=CARTESIAN_POINT('',(24.4,-24.4,-8.));
#321=CARTESIAN_POINT('',(25.9825462644185,-24.4,-8.));
#322=CARTESIAN_POINT('',(24.4,-25.9825462644185,-8.));
#323=CARTESIAN_POINT('',(26.,-24.4,-10.));
#324=CARTESIAN_POINT('',(25.9127313220924,-24.4,5.20417042793042E-15));
#325=CARTESIAN_POINT('',(24.4,-24.4,3.46944695195361E-15));
#326=CARTESIAN_POINT('',(24.4,-25.9127313220924,3.46944695195361E-15));
#327=CARTESIAN_POINT('',(24.4,-26.,-10.));
#328=CARTESIAN_POINT('',(26.,-1.4518655249797E-14,-10.));
#329=CARTESIAN_POINT('',(25.9825462644185,-1.38856421757441E-14,-8.));
#330=CARTESIAN_POINT('',(25.9825462644185,24.4,-8.));
#331=CARTESIAN_POINT('',(26.,24.4,-10.));
#332=CARTESIAN_POINT('',(25.9127313220924,24.4,-1.7347234759768E-15));
#333=CARTESIAN_POINT('',(25.9127313220924,-1.13535898795323E-14,1.7347234759768E-15));
#334=CARTESIAN_POINT('',(24.4,24.4,-10.));
#335=CARTESIAN_POINT('',(24.4,24.4,-8.));
#336=CARTESIAN_POINT('',(24.4,25.9825462644185,-8.));
#337=CARTESIAN_POINT('',(24.4,26.,-10.));
#338=CARTESIAN_POINT('',(24.4,25.9127313220924,-3.46944695195361E-15));
#339=CARTESIAN_POINT('',(24.4,24.4,-3.46944695195361E-15));
#340=CARTESIAN_POINT('',(2.125616586787E-14,26.,-10.));
#341=CARTESIAN_POINT('',(2.12556875920777E-14,25.9825462644185,-8.));
#342=CARTESIAN_POINT('',(-24.4,25.9825462644185,-8.));
#343=CARTESIAN_POINT('',(-24.4,26.,-10.));
#344=CARTESIAN_POINT('',(-24.4,25.9127313220924,-1.04083408558608E-14));
#345=CARTESIAN_POINT('',(2.12537744889084E-14,25.9127313220924,-6.93889390390723E-15));
#346=CARTESIAN_POINT('',(-24.4,24.4,-10.));
#347=CARTESIAN_POINT('',(-24.4,24.4,-8.));
#348=CARTESIAN_POINT('',(-25.9825462644185,24.4,-8.));
#349=CARTESIAN_POINT('',(-26.,24.4,-10.));
#350=CARTESIAN_POINT('',(-25.9127313220924,24.4,-1.21430643318376E-14));
#351=CARTESIAN_POINT('',(-24.4,24.4,-1.04083408558608E-14));
#352=CARTESIAN_POINT('',(-26.,-3.69398075970171E-15,-10.));
#353=CARTESIAN_POINT('',(-25.9825462644185,-3.0682342628144E-15,-8.));
#354=CARTESIAN_POINT('',(-25.9825462644185,-24.4,-8.));
#355=CARTESIAN_POINT('',(-26.,-24.4,-10.));
#356=CARTESIAN_POINT('',(-25.9127313220924,-24.4,-5.20417042793042E-15));
#357=CARTESIAN_POINT('',(-25.9127313220924,-5.65248275265126E-16,-8.67361737988404E-15));
#358=CARTESIAN_POINT('',(-24.4,-24.4,-10.));
#359=CARTESIAN_POINT('',(-24.4,-24.4,-8.));
#360=CARTESIAN_POINT('',(-24.4,-25.9825462644185,-8.));
#361=CARTESIAN_POINT('',(-24.4,-26.,-10.));
#362=CARTESIAN_POINT('',(-24.4,-25.9127313220924,-3.46944695195361E-15));
#363=CARTESIAN_POINT('',(-24.4,-24.4,-3.46944695195361E-15));
#364=CARTESIAN_POINT('',(-6.57152874341589E-15,-26.,-10.));
#365=CARTESIAN_POINT('',(-6.55332635676251E-15,-25.9825462644185,-8.));
#366=CARTESIAN_POINT('',(-6.48051681014896E-15,-25.9127313220924,0.));
#367=CARTESIAN_POINT('',(24.4,-24.4,3.46944695195361E-15));
#368=CARTESIAN_POINT('',(2.82588125398149E-14,40.,-8.));
#369=CARTESIAN_POINT('',(0.,0.,0.));
#370=CARTESIAN_POINT('',(0.,0.,0.));
#371=CARTESIAN_POINT('',(0.,0.,0.));
#372=CARTESIAN_POINT('',(0.,0.,0.));
#373=CARTESIAN_POINT('',(0.,0.,0.));
#374=MECHANICAL_DESIGN_GEOMETRIC_PRESENTATION_REPRESENTATION('',(#209),
#375);
#375=(
GEOMETRIC_REPRESENTATION_CONTEXT(3)
GLOBAL_UNCERTAINTY_ASSIGNED_CONTEXT((#381))
GLOBAL_UNIT_ASSIGNED_CONTEXT((#389,#388,#387))
REPRESENTATION_CONTEXT('23445000','TOP_LEVEL_ASSEMBLY_PART')
);
#376=(
GEOMETRIC_REPRESENTATION_CONTEXT(3)
GLOBAL_UNCERTAINTY_ASSIGNED_CONTEXT((#382))
GLOBAL_UNIT_ASSIGNED_CONTEXT((#389,#388,#387))
REPRESENTATION_CONTEXT('23445000','COMPONENT_PART')
);
#377=(
GEOMETRIC_REPRESENTATION_CONTEXT(3)
GLOBAL_UNCERTAINTY_ASSIGNED_CONTEXT((#383))
GLOBAL_UNIT_ASSIGNED_CONTEXT((#389,#388,#387))
REPRESENTATION_CONTEXT('id51','COMPONENT_PART')
);
#378=(
GEOMETRIC_REPRESENTATION_CONTEXT(3)
GLOBAL_UNCERTAINTY_ASSIGNED_CONTEXT((#384))
GLOBAL_UNIT_ASSIGNED_CONTEXT((#389,#388,#387))
REPRESENTATION_CONTEXT('1_1','COMPONENT_PART')
);
#379=(
GEOMETRIC_REPRESENTATION_CONTEXT(3)
GLOBAL_UNCERTAINTY_ASSIGNED_CONTEXT((#385))
GLOBAL_UNIT_ASSIGNED_CONTEXT((#389,#388,#387))
REPRESENTATION_CONTEXT('401809','COMPONENT_PART')
);
#380=(
GEOMETRIC_REPRESENTATION_CONTEXT(3)
GLOBAL_UNCERTAINTY_ASSIGNED_CONTEXT((#386))
GLOBAL_UNIT_ASSIGNED_CONTEXT((#389,#388,#387))
REPRESENTATION_CONTEXT('square#9','COMPONENT_PART')
);
#381=UNCERTAINTY_MEASURE_WITH_UNIT(LENGTH_MEASURE(0.005),#389,
'DISTANCE_ACCURACY_VALUE','Maximum Tolerance applied to model');
#382=UNCERTAINTY_MEASURE_WITH_UNIT(LENGTH_MEASURE(0.005),#389,
'DISTANCE_ACCURACY_VALUE','Maximum Tolerance applied to model');
#383=UNCERTAINTY_MEASURE_WITH_UNIT(LENGTH_MEASURE(0.005),#389,
'DISTANCE_ACCURACY_VALUE','Maximum Tolerance applied to model');
#384=UNCERTAINTY_MEASURE_WITH_UNIT(LENGTH_MEASURE(0.005),#389,
'DISTANCE_ACCURACY_VALUE','Maximum Tolerance applied to model');
#385=UNCERTAINTY_MEASURE_WITH_UNIT(LENGTH_MEASURE(0.005),#389,
'DISTANCE_ACCURACY_VALUE','Maximum Tolerance applied to model');
#386=UNCERTAINTY_MEASURE_WITH_UNIT(LENGTH_MEASURE(0.005),#389,
'DISTANCE_ACCURACY_VALUE','Maximum Tolerance applied to model');
#387=(
NAMED_UNIT(*)
SI_UNIT($,.STERADIAN.)
SOLID_ANGLE_UNIT()
);
#388=(
NAMED_UNIT(*)
PLANE_ANGLE_UNIT()
SI_UNIT($,.RADIAN.)
);
#389=(
LENGTH_UNIT()
NAMED_UNIT(*)
SI_UNIT(.MILLI.,.METRE.)
);
#390=PRODUCT_DEFINITION_SHAPE('','',#401);
#391=PRODUCT_DEFINITION_SHAPE('','',#402);
#392=PRODUCT_DEFINITION_SHAPE(' ','NAUO PRDDFN',#23);
#393=PRODUCT_DEFINITION_SHAPE('','',#403);
#394=PRODUCT_DEFINITION_SHAPE(' ','NAUO PRDDFN',#24);
#395=PRODUCT_DEFINITION_SHAPE('','',#404);
#396=PRODUCT_DEFINITION_SHAPE(' ','NAUO PRDDFN',#25);
#397=PRODUCT_DEFINITION_SHAPE('','',#405);
#398=PRODUCT_DEFINITION_SHAPE(' ','NAUO PRDDFN',#26);
#399=PRODUCT_DEFINITION_SHAPE('','',#406);
#400=PRODUCT_DEFINITION_SHAPE(' ','NAUO PRDDFN',#27);
#401=PRODUCT_DEFINITION('','',#413,#407);
#402=PRODUCT_DEFINITION('','',#414,#408);
#403=PRODUCT_DEFINITION('','',#415,#409);
#404=PRODUCT_DEFINITION('','',#416,#410);
#405=PRODUCT_DEFINITION('','',#417,#411);
#406=PRODUCT_DEFINITION('','',#418,#412);
#407=PRODUCT_DEFINITION_CONTEXT('',#444,'design');
#408=PRODUCT_DEFINITION_CONTEXT('',#444,'design');
#409=PRODUCT_DEFINITION_CONTEXT('',#444,'design');
#410=PRODUCT_DEFINITION_CONTEXT('',#444,'design');
#411=PRODUCT_DEFINITION_CONTEXT('',#444,'design');
#412=PRODUCT_DEFINITION_CONTEXT('',#444,'design');
#413=PRODUCT_DEFINITION_FORMATION_WITH_SPECIFIED_SOURCE('','',#425,
 .NOT_KNOWN.);
#414=PRODUCT_DEFINITION_FORMATION_WITH_SPECIFIED_SOURCE('','',#426,
 .NOT_KNOWN.);
#415=PRODUCT_DEFINITION_FORMATION_WITH_SPECIFIED_SOURCE('','',#427,
 .NOT_KNOWN.);
#416=PRODUCT_DEFINITION_FORMATION_WITH_SPECIFIED_SOURCE('','',#428,
 .NOT_KNOWN.);
#417=PRODUCT_DEFINITION_FORMATION_WITH_SPECIFIED_SOURCE('','',#429,
 .NOT_KNOWN.);
#418=PRODUCT_DEFINITION_FORMATION_WITH_SPECIFIED_SOURCE('','',#430,
 .NOT_KNOWN.);
#419=PRODUCT_RELATED_PRODUCT_CATEGORY('','',(#425));
#420=PRODUCT_RELATED_PRODUCT_CATEGORY('','',(#426));
#421=PRODUCT_RELATED_PRODUCT_CATEGORY('','',(#427));
#422=PRODUCT_RELATED_PRODUCT_CATEGORY('','',(#428));
#423=PRODUCT_RELATED_PRODUCT_CATEGORY('','',(#429));
#424=PRODUCT_RELATED_PRODUCT_CATEGORY('','',(#430));
#425=PRODUCT('23445000','23445000','23445000',(#437));
#426=PRODUCT('23445000','23445000','23445000',(#438));
#427=PRODUCT('id51','id51','id51',(#439));
#428=PRODUCT('1_1','1_1','1_1',(#440));
#429=PRODUCT('401809','401809','401809',(#441));
#430=PRODUCT('square#9','square#9','square#9',(#442));
#431=PRODUCT_CATEGORY('','');
#432=PRODUCT_CATEGORY('','');
#433=PRODUCT_CATEGORY('','');
#434=PRODUCT_CATEGORY('','');
#435=PRODUCT_CATEGORY('','');
#436=PRODUCT_CATEGORY('','');
#437=PRODUCT_CONTEXT('',#444,'mechanical');
#438=PRODUCT_CONTEXT('',#444,'mechanical');
#439=PRODUCT_CONTEXT('',#444,'mechanical');
#440=PRODUCT_CONTEXT('',#444,'mechanical');
#441=PRODUCT_CONTEXT('',#444,'mechanical');
#442=PRODUCT_CONTEXT('',#444,'mechanical');
#443=APPLICATION_PROTOCOL_DEFINITION('international standard',
'automotive_design',2010,#444);
#444=APPLICATION_CONTEXT(
'core data for automotive mechanical design processes');
ENDSEC;
END-ISO-10303-21;
