ISO-10303-21;
HEADER;
/* Generated by software containing ST-Developer
 * from STEP Tools, Inc. (www.steptools.com) 
 */
/* OPTION: strings as raw bytes, not using required /X/ escapes */

FILE_DESCRIPTION(
/* description */ ('Unknown'),
/* implementation_level */ '2;1');

FILE_NAME(
/* name */ '32168000',
/* time_stamp */ '2022-08-26T13:38:30+02:00',
/* author */ ('Unknown'),
/* organization */ ('GROHE AG'),
/* preprocessor_version */ 'ST-DEVELOPER v16.7',
/* originating_system */ 'DEX',
/* authorisation */ $);

FILE_SCHEMA (('AUTOMOTIVE_DESIGN {1 0 10303 214 3 1 1}'));
ENDSEC;

DATA;
#10=PROPERTY_DEFINITION_REPRESENTATION(#14,#12);
#11=PROPERTY_DEFINITION_REPRESENTATION(#15,#13);
#12=REPRESENTATION('',(#16),#103);
#13=REPRESENTATION('',(#17),#103);
#14=PROPERTY_DEFINITION('pmi validation property','',#112);
#15=PROPERTY_DEFINITION('pmi validation property','',#112);
#16=VALUE_REPRESENTATION_ITEM('number of annotations',COUNT_MEASURE(0.));
#17=VALUE_REPRESENTATION_ITEM('number of views',COUNT_MEASURE(0.));
#18=CONTEXT_DEPENDENT_SHAPE_REPRESENTATION(#22,#114);
#19=CONTEXT_DEPENDENT_SHAPE_REPRESENTATION(#23,#116);
#20=NEXT_ASSEMBLY_USAGE_OCCURRENCE('32168000','32168000','32168000',#117,
#118,'');
#21=NEXT_ASSEMBLY_USAGE_OCCURRENCE('id44','id44','id44',#117,#119,'');
#22=(
REPRESENTATION_RELATIONSHIP(' ',' ',#65,#66)
REPRESENTATION_RELATIONSHIP_WITH_TRANSFORMATION(#24)
SHAPE_REPRESENTATION_RELATIONSHIP()
);
#23=(
REPRESENTATION_RELATIONSHIP(' ',' ',#67,#66)
REPRESENTATION_RELATIONSHIP_WITH_TRANSFORMATION(#25)
SHAPE_REPRESENTATION_RELATIONSHIP()
);
#24=ITEM_DEFINED_TRANSFORMATION(' ',' ',#68,#74);
#25=ITEM_DEFINED_TRANSFORMATION(' ',' ',#68,#75);
#26=SHAPE_REPRESENTATION_RELATIONSHIP('','',#65,#27);
#27=ADVANCED_BREP_SHAPE_REPRESENTATION('',(#61),#104);
#28=CYLINDRICAL_SURFACE('',#71,14.);
#29=ORIENTED_EDGE('',*,*,#33,.T.);
#30=ORIENTED_EDGE('',*,*,#34,.T.);
#31=ORIENTED_EDGE('',*,*,#33,.F.);
#32=ORIENTED_EDGE('',*,*,#34,.F.);
#33=EDGE_CURVE('',#35,#35,#37,.T.);
#34=EDGE_CURVE('',#36,#36,#38,.T.);
#35=VERTEX_POINT('',#95);
#36=VERTEX_POINT('',#98);
#37=CIRCLE('',#70,14.);
#38=CIRCLE('',#72,14.);
#39=EDGE_LOOP('',(#29));
#40=EDGE_LOOP('',(#30));
#41=EDGE_LOOP('',(#31));
#42=EDGE_LOOP('',(#32));
#43=FACE_BOUND('',#39,.T.);
#44=FACE_BOUND('',#40,.T.);
#45=FACE_BOUND('',#41,.T.);
#46=FACE_BOUND('',#42,.T.);
#47=PLANE('',#69);
#48=PLANE('',#73);
#49=ADVANCED_FACE('',(#43),#47,.T.);
#50=ADVANCED_FACE('',(#44,#45),#28,.T.);
#51=ADVANCED_FACE('',(#46),#48,.T.);
#52=CLOSED_SHELL('',(#49,#50,#51));
#53=STYLED_ITEM('',(#54),#61);
#54=PRESENTATION_STYLE_ASSIGNMENT((#55));
#55=SURFACE_STYLE_USAGE(.BOTH.,#56);
#56=SURFACE_SIDE_STYLE('',(#57));
#57=SURFACE_STYLE_FILL_AREA(#58);
#58=FILL_AREA_STYLE('',(#59));
#59=FILL_AREA_STYLE_COLOUR('',#60);
#60=COLOUR_RGB('',0.282352954149246,0.470588266849518,0.705882370471954);
#61=MANIFOLD_SOLID_BREP('',#52);
#62=SHAPE_DEFINITION_REPRESENTATION(#113,#65);
#63=SHAPE_DEFINITION_REPRESENTATION(#112,#66);
#64=SHAPE_DEFINITION_REPRESENTATION(#115,#67);
#65=SHAPE_REPRESENTATION('32168000',(#68),#104);
#66=SHAPE_REPRESENTATION('32168000',(#68,#74,#75),#103);
#67=SHAPE_REPRESENTATION('id44',(#68),#105);
#68=AXIS2_PLACEMENT_3D('',#92,#76,#77);
#69=AXIS2_PLACEMENT_3D('',#93,#78,#79);
#70=AXIS2_PLACEMENT_3D('',#94,#80,#81);
#71=AXIS2_PLACEMENT_3D('',#96,#82,#83);
#72=AXIS2_PLACEMENT_3D('',#97,#84,#85);
#73=AXIS2_PLACEMENT_3D('',#99,#86,#87);
#74=AXIS2_PLACEMENT_3D('',#100,#88,#89);
#75=AXIS2_PLACEMENT_3D('',#101,#90,#91);
#76=DIRECTION('',(0.,0.,1.));
#77=DIRECTION('',(1.,0.,0.));
#78=DIRECTION('',(-1.,1.64813942707761E-16,5.13053727801648E-16));
#79=DIRECTION('',(1.64813942707762E-16,1.,4.02031425339132E-16));
#80=DIRECTION('',(-1.,1.64813942707761E-16,5.13053727801648E-16));
#81=DIRECTION('',(1.64813942707762E-16,1.,4.02031425339132E-16));
#82=DIRECTION('',(-1.,1.64813942707761E-16,5.13053727801648E-16));
#83=DIRECTION('',(1.64813942707762E-16,1.,4.02031425339132E-16));
#84=DIRECTION('',(-1.,1.64813942707761E-16,5.13053727801648E-16));
#85=DIRECTION('',(1.64813942707762E-16,1.,4.02031425339132E-16));
#86=DIRECTION('',(1.,-1.64813942707761E-16,-5.13053727801648E-16));
#87=DIRECTION('',(-1.64813942707762E-16,-1.,-4.02031425339132E-16));
#88=DIRECTION('',(0.,0.,1.));
#89=DIRECTION('',(1.,0.,0.));
#90=DIRECTION('',(0.,0.,1.));
#91=DIRECTION('',(1.,0.,0.));
#92=CARTESIAN_POINT('',(0.,0.,0.));
#93=CARTESIAN_POINT('',(126.2,-38.4,226.5));
#94=CARTESIAN_POINT('',(126.2,-38.4,226.5));
#95=CARTESIAN_POINT('',(126.2,-24.4,226.5));
#96=CARTESIAN_POINT('',(246.2,-38.4,226.5));
#97=CARTESIAN_POINT('',(246.2,-38.4,226.5));
#98=CARTESIAN_POINT('',(246.2,-24.4,226.5));
#99=CARTESIAN_POINT('',(246.2,-24.4,226.5));
#100=CARTESIAN_POINT('',(0.,0.,0.));
#101=CARTESIAN_POINT('',(0.,0.,0.));
#102=MECHANICAL_DESIGN_GEOMETRIC_PRESENTATION_REPRESENTATION('',(#53),#103);
#103=(
GEOMETRIC_REPRESENTATION_CONTEXT(3)
GLOBAL_UNCERTAINTY_ASSIGNED_CONTEXT((#106))
GLOBAL_UNIT_ASSIGNED_CONTEXT((#111,#110,#109))
REPRESENTATION_CONTEXT('32168000','TOP_LEVEL_ASSEMBLY_PART')
);
#104=(
GEOMETRIC_REPRESENTATION_CONTEXT(3)
GLOBAL_UNCERTAINTY_ASSIGNED_CONTEXT((#107))
GLOBAL_UNIT_ASSIGNED_CONTEXT((#111,#110,#109))
REPRESENTATION_CONTEXT('32168000','COMPONENT_PART')
);
#105=(
GEOMETRIC_REPRESENTATION_CONTEXT(3)
GLOBAL_UNCERTAINTY_ASSIGNED_CONTEXT((#108))
GLOBAL_UNIT_ASSIGNED_CONTEXT((#111,#110,#109))
REPRESENTATION_CONTEXT('id44','COMPONENT_PART')
);
#106=UNCERTAINTY_MEASURE_WITH_UNIT(LENGTH_MEASURE(0.005),#111,
'DISTANCE_ACCURACY_VALUE','Maximum Tolerance applied to model');
#107=UNCERTAINTY_MEASURE_WITH_UNIT(LENGTH_MEASURE(0.005),#111,
'DISTANCE_ACCURACY_VALUE','Maximum Tolerance applied to model');
#108=UNCERTAINTY_MEASURE_WITH_UNIT(LENGTH_MEASURE(0.005),#111,
'DISTANCE_ACCURACY_VALUE','Maximum Tolerance applied to model');
#109=(
NAMED_UNIT(*)
SI_UNIT($,.STERADIAN.)
SOLID_ANGLE_UNIT()
);
#110=(
NAMED_UNIT(*)
PLANE_ANGLE_UNIT()
SI_UNIT($,.RADIAN.)
);
#111=(
LENGTH_UNIT()
NAMED_UNIT(*)
SI_UNIT(.MILLI.,.METRE.)
);
#112=PRODUCT_DEFINITION_SHAPE('','',#117);
#113=PRODUCT_DEFINITION_SHAPE('','',#118);
#114=PRODUCT_DEFINITION_SHAPE(' ','NAUO PRDDFN',#20);
#115=PRODUCT_DEFINITION_SHAPE('','',#119);
#116=PRODUCT_DEFINITION_SHAPE(' ','NAUO PRDDFN',#21);
#117=PRODUCT_DEFINITION('','',#123,#120);
#118=PRODUCT_DEFINITION('','',#124,#121);
#119=PRODUCT_DEFINITION('','',#125,#122);
#120=PRODUCT_DEFINITION_CONTEXT('',#139,'design');
#121=PRODUCT_DEFINITION_CONTEXT('',#139,'design');
#122=PRODUCT_DEFINITION_CONTEXT('',#139,'design');
#123=PRODUCT_DEFINITION_FORMATION_WITH_SPECIFIED_SOURCE('','',#129,
 .NOT_KNOWN.);
#124=PRODUCT_DEFINITION_FORMATION_WITH_SPECIFIED_SOURCE('','',#130,
 .NOT_KNOWN.);
#125=PRODUCT_DEFINITION_FORMATION_WITH_SPECIFIED_SOURCE('','',#131,
 .NOT_KNOWN.);
#126=PRODUCT_RELATED_PRODUCT_CATEGORY('','',(#129));
#127=PRODUCT_RELATED_PRODUCT_CATEGORY('','',(#130));
#128=PRODUCT_RELATED_PRODUCT_CATEGORY('','',(#131));
#129=PRODUCT('32168000','32168000','32168000',(#135));
#130=PRODUCT('32168000','32168000','32168000',(#136));
#131=PRODUCT('id44','id44','id44',(#137));
#132=PRODUCT_CATEGORY('','');
#133=PRODUCT_CATEGORY('','');
#134=PRODUCT_CATEGORY('','');
#135=PRODUCT_CONTEXT('',#139,'mechanical');
#136=PRODUCT_CONTEXT('',#139,'mechanical');
#137=PRODUCT_CONTEXT('',#139,'mechanical');
#138=APPLICATION_PROTOCOL_DEFINITION('international standard',
'automotive_design',2010,#139);
#139=APPLICATION_CONTEXT(
'core data for automotive mechanical design processes');
ENDSEC;
END-ISO-10303-21;
