ISO-10303-21;
HEADER;
/* Generated by software containing ST-Developer
 * from STEP Tools, Inc. (www.steptools.com) 
 */
/* OPTION: strings as raw bytes, not using required /X/ escapes */

FILE_DESCRIPTION(
/* description */ ('Unknown'),
/* implementation_level */ '2;1');

FILE_NAME(
/* name */ '34143003',
/* time_stamp */ '2022-08-26T11:26:06+02:00',
/* author */ ('Unknown'),
/* organization */ ('GROHE AG'),
/* preprocessor_version */ 'ST-DEVELOPER v16.7',
/* originating_system */ 'DEX',
/* authorisation */ $);

FILE_SCHEMA (('AUTOMOTIVE_DESIGN {1 0 10303 214 3 1 1}'));
ENDSEC;

DATA;
#10=PROPERTY_DEFINITION_REPRESENTATION(#14,#12);
#11=PROPERTY_DEFINITION_REPRESENTATION(#15,#13);
#12=REPRESENTATION('',(#16),#288);
#13=REPRESENTATION('',(#17),#288);
#14=PROPERTY_DEFINITION('pmi validation property','',#299);
#15=PROPERTY_DEFINITION('pmi validation property','',#299);
#16=VALUE_REPRESENTATION_ITEM('number of annotations',COUNT_MEASURE(0.));
#17=VALUE_REPRESENTATION_ITEM('number of views',COUNT_MEASURE(0.));
#18=CONTEXT_DEPENDENT_SHAPE_REPRESENTATION(#24,#301);
#19=CONTEXT_DEPENDENT_SHAPE_REPRESENTATION(#25,#303);
#20=CONTEXT_DEPENDENT_SHAPE_REPRESENTATION(#26,#305);
#21=NEXT_ASSEMBLY_USAGE_OCCURRENCE('id11','id11','id11',#306,#307,'');
#22=NEXT_ASSEMBLY_USAGE_OCCURRENCE('ALIAS BREP MODEL',
'ALIAS BREP MODEL','ALIAS BREP MODEL',#306,#308,'');
#23=NEXT_ASSEMBLY_USAGE_OCCURRENCE('REVOLVE#103','REVOLVE#103',
'REVOLVE#103',#306,#309,'');
#24=(
REPRESENTATION_RELATIONSHIP(' ',' ',#169,#170)
REPRESENTATION_RELATIONSHIP_WITH_TRANSFORMATION(#27)
SHAPE_REPRESENTATION_RELATIONSHIP()
);
#25=(
REPRESENTATION_RELATIONSHIP(' ',' ',#171,#170)
REPRESENTATION_RELATIONSHIP_WITH_TRANSFORMATION(#28)
SHAPE_REPRESENTATION_RELATIONSHIP()
);
#26=(
REPRESENTATION_RELATIONSHIP(' ',' ',#172,#170)
REPRESENTATION_RELATIONSHIP_WITH_TRANSFORMATION(#29)
SHAPE_REPRESENTATION_RELATIONSHIP()
);
#27=ITEM_DEFINED_TRANSFORMATION(' ',' ',#173,#196);
#28=ITEM_DEFINED_TRANSFORMATION(' ',' ',#173,#197);
#29=ITEM_DEFINED_TRANSFORMATION(' ',' ',#173,#198);
#30=SHAPE_REPRESENTATION_RELATIONSHIP('','',#169,#31);
#31=ADVANCED_BREP_SHAPE_REPRESENTATION('',(#163,#164),#289);
#32=CYLINDRICAL_SURFACE('',#184,35.);
#33=CYLINDRICAL_SURFACE('',#195,35.);
#34=CONICAL_SURFACE('',#183,15.5,0.772740611563396);
#35=CONICAL_SURFACE('',#194,15.5,0.772740611563396);
#36=TOROIDAL_SURFACE('',#176,33.,2.);
#37=TOROIDAL_SURFACE('',#179,14.8675283414805,1.5);
#38=TOROIDAL_SURFACE('',#187,33.,2.);
#39=TOROIDAL_SURFACE('',#190,14.8675283414805,1.5);
#40=ORIENTED_EDGE('',*,*,#60,.T.);
#41=ORIENTED_EDGE('',*,*,#61,.F.);
#42=ORIENTED_EDGE('',*,*,#62,.F.);
#43=ORIENTED_EDGE('',*,*,#60,.F.);
#44=ORIENTED_EDGE('',*,*,#63,.F.);
#45=ORIENTED_EDGE('',*,*,#64,.T.);
#46=ORIENTED_EDGE('',*,*,#61,.T.);
#47=ORIENTED_EDGE('',*,*,#63,.T.);
#48=ORIENTED_EDGE('',*,*,#62,.T.);
#49=ORIENTED_EDGE('',*,*,#64,.F.);
#50=ORIENTED_EDGE('',*,*,#65,.T.);
#51=ORIENTED_EDGE('',*,*,#66,.F.);
#52=ORIENTED_EDGE('',*,*,#67,.F.);
#53=ORIENTED_EDGE('',*,*,#65,.F.);
#54=ORIENTED_EDGE('',*,*,#68,.F.);
#55=ORIENTED_EDGE('',*,*,#69,.T.);
#56=ORIENTED_EDGE('',*,*,#66,.T.);
#57=ORIENTED_EDGE('',*,*,#68,.T.);
#58=ORIENTED_EDGE('',*,*,#67,.T.);
#59=ORIENTED_EDGE('',*,*,#69,.F.);
#60=EDGE_CURVE('',#70,#70,#80,.F.);
#61=EDGE_CURVE('',#71,#71,#81,.T.);
#62=EDGE_CURVE('',#72,#72,#82,.F.);
#63=EDGE_CURVE('',#73,#73,#83,.F.);
#64=EDGE_CURVE('',#74,#74,#84,.T.);
#65=EDGE_CURVE('',#75,#75,#85,.F.);
#66=EDGE_CURVE('',#76,#76,#86,.T.);
#67=EDGE_CURVE('',#77,#77,#87,.F.);
#68=EDGE_CURVE('',#78,#78,#88,.F.);
#69=EDGE_CURVE('',#79,#79,#89,.T.);
#70=VERTEX_POINT('',#254);
#71=VERTEX_POINT('',#257);
#72=VERTEX_POINT('',#259);
#73=VERTEX_POINT('',#262);
#74=VERTEX_POINT('',#265);
#75=VERTEX_POINT('',#270);
#76=VERTEX_POINT('',#273);
#77=VERTEX_POINT('',#275);
#78=VERTEX_POINT('',#278);
#79=VERTEX_POINT('',#281);
#80=CIRCLE('',#175,14.8675283414805);
#81=CIRCLE('',#177,34.4320002792401);
#82=CIRCLE('',#178,35.);
#83=CIRCLE('',#180,15.9415285509105);
#84=CIRCLE('',#182,35.);
#85=CIRCLE('',#186,14.8675283414805);
#86=CIRCLE('',#188,34.4320002792401);
#87=CIRCLE('',#189,35.);
#88=CIRCLE('',#191,15.9415285509105);
#89=CIRCLE('',#193,35.);
#90=EDGE_LOOP('',(#40));
#91=EDGE_LOOP('',(#41));
#92=EDGE_LOOP('',(#42));
#93=EDGE_LOOP('',(#43));
#94=EDGE_LOOP('',(#44));
#95=EDGE_LOOP('',(#45));
#96=EDGE_LOOP('',(#46));
#97=EDGE_LOOP('',(#47));
#98=EDGE_LOOP('',(#48));
#99=EDGE_LOOP('',(#49));
#100=EDGE_LOOP('',(#50));
#101=EDGE_LOOP('',(#51));
#102=EDGE_LOOP('',(#52));
#103=EDGE_LOOP('',(#53));
#104=EDGE_LOOP('',(#54));
#105=EDGE_LOOP('',(#55));
#106=EDGE_LOOP('',(#56));
#107=EDGE_LOOP('',(#57));
#108=EDGE_LOOP('',(#58));
#109=EDGE_LOOP('',(#59));
#110=FACE_BOUND('',#90,.T.);
#111=FACE_BOUND('',#91,.T.);
#112=FACE_BOUND('',#92,.T.);
#113=FACE_BOUND('',#93,.T.);
#114=FACE_BOUND('',#94,.T.);
#115=FACE_BOUND('',#95,.T.);
#116=FACE_BOUND('',#96,.T.);
#117=FACE_BOUND('',#97,.T.);
#118=FACE_BOUND('',#98,.T.);
#119=FACE_BOUND('',#99,.T.);
#120=FACE_BOUND('',#100,.T.);
#121=FACE_BOUND('',#101,.T.);
#122=FACE_BOUND('',#102,.T.);
#123=FACE_BOUND('',#103,.T.);
#124=FACE_BOUND('',#104,.T.);
#125=FACE_BOUND('',#105,.T.);
#126=FACE_BOUND('',#106,.T.);
#127=FACE_BOUND('',#107,.T.);
#128=FACE_BOUND('',#108,.T.);
#129=FACE_BOUND('',#109,.T.);
#130=PLANE('',#174);
#131=PLANE('',#181);
#132=PLANE('',#185);
#133=PLANE('',#192);
#134=ADVANCED_FACE('',(#110),#130,.F.);
#135=ADVANCED_FACE('',(#111,#112),#36,.T.);
#136=ADVANCED_FACE('',(#113,#114),#37,.T.);
#137=ADVANCED_FACE('',(#115),#131,.F.);
#138=ADVANCED_FACE('',(#116,#117),#34,.T.);
#139=ADVANCED_FACE('',(#118,#119),#32,.T.);
#140=ADVANCED_FACE('',(#120),#132,.F.);
#141=ADVANCED_FACE('',(#121,#122),#38,.T.);
#142=ADVANCED_FACE('',(#123,#124),#39,.T.);
#143=ADVANCED_FACE('',(#125),#133,.F.);
#144=ADVANCED_FACE('',(#126,#127),#35,.T.);
#145=ADVANCED_FACE('',(#128,#129),#33,.T.);
#146=CLOSED_SHELL('',(#134,#135,#136,#137,#138,#139));
#147=CLOSED_SHELL('',(#140,#141,#142,#143,#144,#145));
#148=STYLED_ITEM('',(#150),#163);
#149=STYLED_ITEM('',(#151),#164);
#150=PRESENTATION_STYLE_ASSIGNMENT((#152));
#151=PRESENTATION_STYLE_ASSIGNMENT((#153));
#152=SURFACE_STYLE_USAGE(.BOTH.,#154);
#153=SURFACE_STYLE_USAGE(.BOTH.,#155);
#154=SURFACE_SIDE_STYLE('',(#156));
#155=SURFACE_SIDE_STYLE('',(#157));
#156=SURFACE_STYLE_FILL_AREA(#158);
#157=SURFACE_STYLE_FILL_AREA(#159);
#158=FILL_AREA_STYLE('',(#160));
#159=FILL_AREA_STYLE('',(#161));
#160=FILL_AREA_STYLE_COLOUR('',#162);
#161=FILL_AREA_STYLE_COLOUR('',#162);
#162=COLOUR_RGB('',0.141176477074623,0.517647087574005,0.470588266849518);
#163=MANIFOLD_SOLID_BREP('',#146);
#164=MANIFOLD_SOLID_BREP('',#147);
#165=SHAPE_DEFINITION_REPRESENTATION(#300,#169);
#166=SHAPE_DEFINITION_REPRESENTATION(#299,#170);
#167=SHAPE_DEFINITION_REPRESENTATION(#302,#171);
#168=SHAPE_DEFINITION_REPRESENTATION(#304,#172);
#169=SHAPE_REPRESENTATION('id11',(#173),#289);
#170=SHAPE_REPRESENTATION('34143003',(#173,#196,#197,#198),#288);
#171=SHAPE_REPRESENTATION('ALIAS BREP MODEL',(#173),#290);
#172=SHAPE_REPRESENTATION('REVOLVE#103',(#173),#291);
#173=AXIS2_PLACEMENT_3D('',#251,#199,#200);
#174=AXIS2_PLACEMENT_3D('',#252,#201,#202);
#175=AXIS2_PLACEMENT_3D('',#253,#203,#204);
#176=AXIS2_PLACEMENT_3D('',#255,#205,#206);
#177=AXIS2_PLACEMENT_3D('',#256,#207,#208);
#178=AXIS2_PLACEMENT_3D('',#258,#209,#210);
#179=AXIS2_PLACEMENT_3D('',#260,#211,#212);
#180=AXIS2_PLACEMENT_3D('',#261,#213,#214);
#181=AXIS2_PLACEMENT_3D('',#263,#215,#216);
#182=AXIS2_PLACEMENT_3D('',#264,#217,#218);
#183=AXIS2_PLACEMENT_3D('',#266,#219,#220);
#184=AXIS2_PLACEMENT_3D('',#267,#221,#222);
#185=AXIS2_PLACEMENT_3D('',#268,#223,#224);
#186=AXIS2_PLACEMENT_3D('',#269,#225,#226);
#187=AXIS2_PLACEMENT_3D('',#271,#227,#228);
#188=AXIS2_PLACEMENT_3D('',#272,#229,#230);
#189=AXIS2_PLACEMENT_3D('',#274,#231,#232);
#190=AXIS2_PLACEMENT_3D('',#276,#233,#234);
#191=AXIS2_PLACEMENT_3D('',#277,#235,#236);
#192=AXIS2_PLACEMENT_3D('',#279,#237,#238);
#193=AXIS2_PLACEMENT_3D('',#280,#239,#240);
#194=AXIS2_PLACEMENT_3D('',#282,#241,#242);
#195=AXIS2_PLACEMENT_3D('',#283,#243,#244);
#196=AXIS2_PLACEMENT_3D('',#284,#245,#246);
#197=AXIS2_PLACEMENT_3D('',#285,#247,#248);
#198=AXIS2_PLACEMENT_3D('',#286,#249,#250);
#199=DIRECTION('',(0.,0.,1.));
#200=DIRECTION('',(1.,0.,0.));
#201=DIRECTION('',(-1.,2.44921270764474E-16,-6.16962832906534E-16));
#202=DIRECTION('',(6.16962832906534E-16,-1.49876168508848E-31,-1.));
#203=DIRECTION('',(-1.,2.44921270764474E-16,-6.16962832906534E-16));
#204=DIRECTION('',(6.16962832906534E-16,-1.49876168508848E-31,-1.));
#205=DIRECTION('',(1.,-2.44921270764474E-16,6.16962832906534E-16));
#206=DIRECTION('',(-6.16962832906534E-16,1.49876168508848E-31,1.));
#207=DIRECTION('',(1.,-2.44921270764474E-16,6.16962832906534E-16));
#208=DIRECTION('',(-6.16962832906534E-16,1.49876168508848E-31,1.));
#209=DIRECTION('',(1.,-2.44921270764474E-16,6.16962832906534E-16));
#210=DIRECTION('',(-6.16962832906534E-16,1.49876168508848E-31,1.));
#211=DIRECTION('',(-1.,2.44921270764474E-16,-6.16962832906534E-16));
#212=DIRECTION('',(6.16962832906534E-16,-1.49876168508848E-31,-1.));
#213=DIRECTION('',(1.,-2.44921270764474E-16,6.16962832906534E-16));
#214=DIRECTION('',(-6.16962832906534E-16,1.49876168508848E-31,1.));
#215=DIRECTION('',(1.,-2.44921270764474E-16,6.16962832906534E-16));
#216=DIRECTION('',(-6.16962832906534E-16,1.49876168508848E-31,1.));
#217=DIRECTION('',(-1.,2.44921270764474E-16,-6.16962832906534E-16));
#218=DIRECTION('',(6.16962832906534E-16,-1.49876168508848E-31,-1.));
#219=DIRECTION('',(-1.,2.44921270764474E-16,-6.16962832906534E-16));
#220=DIRECTION('',(6.16962832906534E-16,-1.49876168508848E-31,-1.));
#221=DIRECTION('',(-1.,2.44921270764474E-16,-6.16962832906534E-16));
#222=DIRECTION('',(6.16962832906534E-16,-1.49876168508848E-31,-1.));
#223=DIRECTION('',(-1.,2.96661045324859E-16,-8.08906499511849E-21));
#224=DIRECTION('',(-8.0890649952065E-21,-2.96661045324859E-16,1.));
#225=DIRECTION('',(-1.,2.96661045324859E-16,-8.08906499511849E-21));
#226=DIRECTION('',(-8.0890649952065E-21,-2.96661045324859E-16,1.));
#227=DIRECTION('',(1.,-2.96661045324859E-16,8.08906499511849E-21));
#228=DIRECTION('',(8.0890649952065E-21,2.96661045324859E-16,-1.));
#229=DIRECTION('',(1.,-2.96661045324859E-16,8.08906499511849E-21));
#230=DIRECTION('',(8.0890649952065E-21,2.96661045324859E-16,-1.));
#231=DIRECTION('',(1.,-2.96661045324859E-16,8.08906499511849E-21));
#232=DIRECTION('',(8.0890649952065E-21,2.96661045324859E-16,-1.));
#233=DIRECTION('',(-1.,2.96661045324859E-16,-8.08906499511849E-21));
#234=DIRECTION('',(-8.0890649952065E-21,-2.96661045324859E-16,1.));
#235=DIRECTION('',(1.,-2.96661045324859E-16,8.08906499511849E-21));
#236=DIRECTION('',(8.0890649952065E-21,2.96661045324859E-16,-1.));
#237=DIRECTION('',(1.,-2.96661045324859E-16,8.08906499511849E-21));
#238=DIRECTION('',(8.0890649952065E-21,2.96661045324859E-16,-1.));
#239=DIRECTION('',(-1.,2.96661045324859E-16,-8.08906499511849E-21));
#240=DIRECTION('',(-8.0890649952065E-21,-2.96661045324859E-16,1.));
#241=DIRECTION('',(-1.,2.96661045324859E-16,-8.08906499511849E-21));
#242=DIRECTION('',(-8.0890649952065E-21,-2.96661045324859E-16,1.));
#243=DIRECTION('',(-1.,2.96661045324859E-16,-8.08906499511849E-21));
#244=DIRECTION('',(-8.0890649952065E-21,-2.96661045324859E-16,1.));
#245=DIRECTION('',(0.,0.,1.));
#246=DIRECTION('',(1.,0.,0.));
#247=DIRECTION('',(0.,0.,1.));
#248=DIRECTION('',(1.,0.,0.));
#249=DIRECTION('',(0.,0.,1.));
#250=DIRECTION('',(1.,0.,0.));
#251=CARTESIAN_POINT('',(0.,0.,0.));
#252=CARTESIAN_POINT('',(-56.0999955392759,-75.,-16.0585));
#253=CARTESIAN_POINT('',(-56.0999955392759,-75.,-4.));
#254=CARTESIAN_POINT('',(-56.0999955392759,-75.,-18.8675283414805));
#255=CARTESIAN_POINT('',(-76.913631995371,-75.,-4.));
#256=CARTESIAN_POINT('',(-75.5174317231119,-75.,-4.));
#257=CARTESIAN_POINT('',(-75.5174317231119,-75.,30.4320002792401));
#258=CARTESIAN_POINT('',(-76.913631995371,-75.,-4.));
#259=CARTESIAN_POINT('',(-76.913631995371,-75.,31.));
#260=CARTESIAN_POINT('',(-57.5999955392759,-75.,-4.));
#261=CARTESIAN_POINT('',(-56.5528453350816,-75.,-4.));
#262=CARTESIAN_POINT('',(-56.5528453350816,-75.,11.9415285509105));
#263=CARTESIAN_POINT('',(-82.0999955392759,-75.,-39.));
#264=CARTESIAN_POINT('',(-82.0999955392759,-75.,-4.));
#265=CARTESIAN_POINT('',(-82.0999955392759,-75.,-39.));
#266=CARTESIAN_POINT('',(-56.0999955392759,-75.,-4.));
#267=CARTESIAN_POINT('',(-28.0999955392759,-75.,-4.));
#268=CARTESIAN_POINT('',(-56.0999959788172,75.,8.0585000000001));
#269=CARTESIAN_POINT('',(-56.0999959788172,75.,-3.99999999999991));
#270=CARTESIAN_POINT('',(-56.0999959788172,75.,10.8675283414806));
#271=CARTESIAN_POINT('',(-76.9136324349123,75.,-3.99999999999991));
#272=CARTESIAN_POINT('',(-75.5174321626532,75.,-3.99999999999991));
#273=CARTESIAN_POINT('',(-75.5174321626532,75.,-38.43200027924));
#274=CARTESIAN_POINT('',(-76.9136324349123,75.,-3.99999999999991));
#275=CARTESIAN_POINT('',(-76.9136324349123,75.,-38.9999999999999));
#276=CARTESIAN_POINT('',(-57.5999959788172,75.,-3.99999999999991));
#277=CARTESIAN_POINT('',(-56.5528457746229,75.,-3.99999999999991));
#278=CARTESIAN_POINT('',(-56.5528457746229,75.,-19.9415285509105));
#279=CARTESIAN_POINT('',(-82.0999959788172,75.,31.));
#280=CARTESIAN_POINT('',(-82.0999959788172,75.,-3.99999999999991));
#281=CARTESIAN_POINT('',(-82.0999959788172,75.,31.0000000000001));
#282=CARTESIAN_POINT('',(-56.0999959788172,75.,-3.99999999999991));
#283=CARTESIAN_POINT('',(-28.0999959788172,75.,-3.99999999999991));
#284=CARTESIAN_POINT('',(0.,0.,0.));
#285=CARTESIAN_POINT('',(0.,0.,0.));
#286=CARTESIAN_POINT('',(0.,0.,0.));
#287=MECHANICAL_DESIGN_GEOMETRIC_PRESENTATION_REPRESENTATION('',(#148,#149),
#288);
#288=(
GEOMETRIC_REPRESENTATION_CONTEXT(3)
GLOBAL_UNCERTAINTY_ASSIGNED_CONTEXT((#292))
GLOBAL_UNIT_ASSIGNED_CONTEXT((#298,#297,#296))
REPRESENTATION_CONTEXT('34143003','TOP_LEVEL_ASSEMBLY_PART')
);
#289=(
GEOMETRIC_REPRESENTATION_CONTEXT(3)
GLOBAL_UNCERTAINTY_ASSIGNED_CONTEXT((#293))
GLOBAL_UNIT_ASSIGNED_CONTEXT((#298,#297,#296))
REPRESENTATION_CONTEXT('id11','COMPONENT_PART')
);
#290=(
GEOMETRIC_REPRESENTATION_CONTEXT(3)
GLOBAL_UNCERTAINTY_ASSIGNED_CONTEXT((#294))
GLOBAL_UNIT_ASSIGNED_CONTEXT((#298,#297,#296))
REPRESENTATION_CONTEXT('ALIAS BREP MODEL','COMPONENT_PART')
);
#291=(
GEOMETRIC_REPRESENTATION_CONTEXT(3)
GLOBAL_UNCERTAINTY_ASSIGNED_CONTEXT((#295))
GLOBAL_UNIT_ASSIGNED_CONTEXT((#298,#297,#296))
REPRESENTATION_CONTEXT('REVOLVE#103','COMPONENT_PART')
);
#292=UNCERTAINTY_MEASURE_WITH_UNIT(LENGTH_MEASURE(0.005),#298,
'DISTANCE_ACCURACY_VALUE','Maximum Tolerance applied to model');
#293=UNCERTAINTY_MEASURE_WITH_UNIT(LENGTH_MEASURE(0.005),#298,
'DISTANCE_ACCURACY_VALUE','Maximum Tolerance applied to model');
#294=UNCERTAINTY_MEASURE_WITH_UNIT(LENGTH_MEASURE(0.005),#298,
'DISTANCE_ACCURACY_VALUE','Maximum Tolerance applied to model');
#295=UNCERTAINTY_MEASURE_WITH_UNIT(LENGTH_MEASURE(0.005),#298,
'DISTANCE_ACCURACY_VALUE','Maximum Tolerance applied to model');
#296=(
NAMED_UNIT(*)
SI_UNIT($,.STERADIAN.)
SOLID_ANGLE_UNIT()
);
#297=(
NAMED_UNIT(*)
PLANE_ANGLE_UNIT()
SI_UNIT($,.RADIAN.)
);
#298=(
LENGTH_UNIT()
NAMED_UNIT(*)
SI_UNIT(.MILLI.,.METRE.)
);
#299=PRODUCT_DEFINITION_SHAPE('','',#306);
#300=PRODUCT_DEFINITION_SHAPE('','',#307);
#301=PRODUCT_DEFINITION_SHAPE(' ','NAUO PRDDFN',#21);
#302=PRODUCT_DEFINITION_SHAPE('','',#308);
#303=PRODUCT_DEFINITION_SHAPE(' ','NAUO PRDDFN',#22);
#304=PRODUCT_DEFINITION_SHAPE('','',#309);
#305=PRODUCT_DEFINITION_SHAPE(' ','NAUO PRDDFN',#23);
#306=PRODUCT_DEFINITION('','',#314,#310);
#307=PRODUCT_DEFINITION('','',#315,#311);
#308=PRODUCT_DEFINITION('','',#316,#312);
#309=PRODUCT_DEFINITION('','',#317,#313);
#310=PRODUCT_DEFINITION_CONTEXT('',#335,'design');
#311=PRODUCT_DEFINITION_CONTEXT('',#335,'design');
#312=PRODUCT_DEFINITION_CONTEXT('',#335,'design');
#313=PRODUCT_DEFINITION_CONTEXT('',#335,'design');
#314=PRODUCT_DEFINITION_FORMATION_WITH_SPECIFIED_SOURCE('','',#322,
 .NOT_KNOWN.);
#315=PRODUCT_DEFINITION_FORMATION_WITH_SPECIFIED_SOURCE('','',#323,
 .NOT_KNOWN.);
#316=PRODUCT_DEFINITION_FORMATION_WITH_SPECIFIED_SOURCE('','',#324,
 .NOT_KNOWN.);
#317=PRODUCT_DEFINITION_FORMATION_WITH_SPECIFIED_SOURCE('','',#325,
 .NOT_KNOWN.);
#318=PRODUCT_RELATED_PRODUCT_CATEGORY('','',(#322));
#319=PRODUCT_RELATED_PRODUCT_CATEGORY('','',(#323));
#320=PRODUCT_RELATED_PRODUCT_CATEGORY('','',(#324));
#321=PRODUCT_RELATED_PRODUCT_CATEGORY('','',(#325));
#322=PRODUCT('34143003','34143003','34143003',(#330));
#323=PRODUCT('id11','id11','id11',(#331));
#324=PRODUCT('ALIAS BREP MODEL','ALIAS BREP MODEL','ALIAS BREP MODEL',(#332));
#325=PRODUCT('REVOLVE#103','REVOLVE#103','REVOLVE#103',(#333));
#326=PRODUCT_CATEGORY('','');
#327=PRODUCT_CATEGORY('','');
#328=PRODUCT_CATEGORY('','');
#329=PRODUCT_CATEGORY('','');
#330=PRODUCT_CONTEXT('',#335,'mechanical');
#331=PRODUCT_CONTEXT('',#335,'mechanical');
#332=PRODUCT_CONTEXT('',#335,'mechanical');
#333=PRODUCT_CONTEXT('',#335,'mechanical');
#334=APPLICATION_PROTOCOL_DEFINITION('international standard',
'automotive_design',2010,#335);
#335=APPLICATION_CONTEXT(
'core data for automotive mechanical design processes');
ENDSEC;
END-ISO-10303-21;
